  0
SECTION
  2
HEADER
  9
$ACADVER
  1
AC1015
  9
$DWGCODEPAGE
  3
ansi_1252
  9
$INSBASE
 10
0
 20
0
 30
0
  9
$EXTMIN
 10
9.9999965641472954E-08
 20
1E-07
 30
0
  9
$EXTMAX
 10
590.00000009999985
 20
200.00000010000002
 30
0
  9
$LIMMIN
 10
0
 20
0
  9
$LIMMAX
 10
12
 20
9
  9
$SNAPMODE
 70
0
  9
$SNAPUNIT
 10
1
 20
1
  9
$SNAPBASE
 10
0
 20
0
  9
$SNAPANG
 50
0
  9
$SNAPSTYLE
 70
0
  9
$SNAPISOPAIR
 70
0
  9
$ORTHOMODE
 70
0
  9
$REGENMODE
 70
1
  9
$FILLMODE
 70
1
  9
$QTEXTMODE
 70
0
  9
$MIRRTEXT
 70
1
  9
$LTSCALE
 40
1
  9
$OSMODE
 70
0
  9
$ATTMODE
 70
1
  9
$TEXTSIZE
 40
0.2
  9
$TRACEWID
 40
0.05
  9
$TEXTSTYLE
  7
Standard
  9
$CLAYER
  8
0
  9
$CELTYPE
  6
ByLayer
  9
$CECOLOR
 62
256
  9
$CELTSCALE
 40
1
  9
$DISPSILH
 70
0
  9
$DIMSCALE
 40
1
  9
$DIMASZ
 40
0.18
  9
$DIMEXO
 40
0.0625
  9
$DIMDLI
 40
0.38
  9
$DIMRND
 40
0
  9
$DIMDLE
 40
0
  9
$DIMEXE
 40
0.18
  9
$DIMTP
 40
0
  9
$DIMTM
 40
0
  9
$DIMTXT
 40
0.18
  9
$DIMCEN
 40
0.09
  9
$DIMTSZ
 40
0
  9
$DIMTOL
 70
0
  9
$DIMLIM
 70
0
  9
$DIMTIH
 70
1
  9
$DIMTOH
 70
1
  9
$DIMSE1
 70
0
  9
$DIMSE2
 70
0
  9
$DIMTAD
 70
0
  9
$DIMZIN
 70
0
  9
$DIMBLK
  1

  9
$DIMASO
 70
1
  9
$DIMSHO
 70
1
  9
$DIMPOST
  1

  9
$DIMAPOST
  1

  9
$DIMALT
 70
0
  9
$DIMALTD
 70
2
  9
$DIMALTF
 40
0.03937007874015748
  9
$DIMLFAC
 40
1
  9
$DIMTOFL
 70
0
  9
$DIMTVP
 40
0
  9
$DIMTIX
 70
0
  9
$DIMSOXD
 70
0
  9
$DIMSAH
 70
0
  9
$DIMBLK1
  1

  9
$DIMBLK2
  1

  9
$DIMSTYLE
  2
Standard
  9
$DIMCLRD
 70
0
  9
$DIMCLRE
 70
0
  9
$DIMCLRT
 70
0
  9
$DIMTFAC
 40
1
  9
$DIMGAP
 40
0.09
  9
$DIMJUST
 70
0
  9
$DIMSD1
 70
0
  9
$DIMSD2
 70
0
  9
$DIMTOLJ
 70
1
  9
$DIMTZIN
 70
0
  9
$DIMALTZ
 70
0
  9
$DIMALTTZ
 70
0
  9
$DIMUPT
 70
0
  9
$DIMDEC
 70
4
  9
$DIMTDEC
 70
4
  9
$DIMALTU
 70
2
  9
$DIMALTTD
 70
0
  9
$DIMTXSTY
  7
Standard
  9
$DIMAUNIT
 70
0
  9
$DIMADEC
 70
0
  9
$DIMALTRND
 40
0
  9
$DIMAZIN
 70
0
  9
$DIMDSEP
 70
46
  9
$DIMATFIT
 70
0
  9
$DIMFRAC
 70
0
  9
$DIMLDRBLK
  1

  9
$DIMLUNIT
 70
2
  9
$DIMLWD
 70
-2
  9
$DIMLWE
 70
-2
  9
$LUNITS
 70
2
  9
$LUPREC
 70
4
  9
$SKETCHINC
 40
0.1
  9
$FILLETRAD
 40
0
  9
$AUNITS
 70
0
  9
$AUPREC
 70
0
  9
$MENU
  1
.
  9
$ELEVATION
 40
0
  9
$PELEVATION
 40
0
  9
$THICKNESS
 40
0
  9
$LIMCHECK
 70
0
  9
$CHAMFERA
 40
0.5
  9
$CHAMFERB
 40
0.5
  9
$CHAMFERC
 40
0
  9
$CHAMFERD
 40
0
  9
$SKPOLY
 70
0
  9
$TDCREATE
 40
2461007.0535867824
  9
$TDUCREATE
 40
2461006.7202534489
  9
$TDUPDATE
 40
2461007.0535867824
  9
$TDUUPDATE
 40
2461006.7202534489
  9
$TDINDWG
 40
0
  9
$TDUSRTIMER
 40
1.1574074074074074E-08
  9
$USRTIMER
 70
1
  9
$ANGBASE
 50
0
  9
$ANGDIR
 70
1
  9
$PDMODE
 70
0
  9
$PDSIZE
 40
0
  9
$PLINEWID
 40
0
  9
$SPLFRAME
 70
0
  9
$SPLINETYPE
 70
6
  9
$SPLINESEGS
 70
8
  9
$HANDSEED
  5
17A
  9
$SURFTAB1
 70
6
  9
$SURFTAB2
 70
6
  9
$SURFTYPE
 70
6
  9
$SURFU
 70
6
  9
$SURFV
 70
6
  9
$UCSORG
 10
0
 20
0
 30
0
  9
$UCSXDIR
 10
1
 20
0
 30
0
  9
$UCSYDIR
 10
0
 20
1
 30
0
  9
$UCSORTHOREF
  2

  9
$UCSORTHOVIEW
 70
0
  9
$UCSORGTOP
 10
0
 20
0
 30
0
  9
$UCSORGBOTTOM
 10
0
 20
0
 30
0
  9
$UCSORGLEFT
 10
0
 20
0
 30
0
  9
$UCSORGRIGHT
 10
0
 20
0
 30
0
  9
$UCSORGFRONT
 10
0
 20
0
 30
0
  9
$UCSORGBACK
 10
0
 20
0
 30
0
  9
$PUCSORG
 10
0
 20
0
 30
0
  9
$PUCSXDIR
 10
1
 20
0
 30
0
  9
$PUCSYDIR
 10
0
 20
1
 30
0
  9
$PUCSORTHOREF
  2

  9
$PUCSORTHOVIEW
 70
0
  9
$PUCSORGTOP
 10
0
 20
0
 30
0
  9
$PUCSORGBOTTOM
 10
0
 20
0
 30
0
  9
$PUCSORGLEFT
 10
0
 20
0
 30
0
  9
$PUCSORGRIGHT
 10
0
 20
0
 30
0
  9
$PUCSORGFRONT
 10
0
 20
0
 30
0
  9
$PUCSORGBACK
 10
0
 20
0
 30
0
  9
$USERI1
 70
0
  9
$USERI2
 70
0
  9
$USERI3
 70
0
  9
$USERI4
 70
0
  9
$USERI5
 70
0
  9
$USERR1
 40
0
  9
$USERR2
 40
0
  9
$USERR3
 40
0
  9
$USERR4
 40
0
  9
$USERR5
 40
0
  9
$WORLDVIEW
 70
1
  9
$SHADEDGE
 70
3
  9
$SHADEDIF
 70
70
  9
$TILEMODE
 70
1
  9
$MAXACTVP
 70
48
  9
$PINSBASE
 10
0
 20
0
 30
0
  9
$PLIMCHECK
 70
0
  9
$PEXTMIN
 10
1E+20
 20
1E+20
 30
1E+20
  9
$PEXTMAX
 10
-1E+20
 20
-1E+20
 30
-1E+20
  9
$PLIMMAX
 10
0
 20
0
  9
$PLIMMIN
 10
0
 20
0
  9
$UNITMODE
 70
0
  9
$VISRETAIN
 70
1
  9
$PLINEGEN
 70
1
  9
$PSLTSCALE
 70
1
  9
$TREEDEPTH
 70
3020
  9
$CMLSTYLE
  2
STANDARD
  9
$CMLJUST
 70
0
  9
$CMLSCALE
 40
1
  9
$PROXYGRAPHICS
 70
1
  9
$MEASUREMENT
 70
1
  9
$CELWEIGHT
370
-1
  9
$ENDCAPS
280
0
  9
$JOINSTYLE
280
0
  9
$LWDISPLAY
290
1
  9
$INSUNITS
 70
4
  9
$HYPERLINKBASE
  1

  9
$XEDIT
290
1
  9
$CEPSNTYPE
380
0
  9
$PSTYLEMODE
290
0
  9
$FINGERPRINTGUID
  2

  9
$VERSIONGUID
  2

  9
$EXTNAMES
290
1
  9
$PSVPSCALE
 40
0
  9
$CSHADOW
280
0
  9
$SHADOWPLANELOCATION
 40
0
  0
ENDSEC
  0
SECTION
  2
CLASSES
  0
CLASS
  1
RASTERVARIABLES
  2
AcDbRasterVariables
  3
ISM
 90
0
280
0
281
0
  0
CLASS
  1
IMAGEDEF
  2
AcDbRasterImageDef
  3
ISM
 90
0
280
0
281
0
  0
CLASS
  1
IMAGEDEF_REACTOR
  2
AcDbRasterImageDefReactor
  3
ISM
 90
1
280
0
281
0
  0
CLASS
  1
IMAGE
  2
AcDbRasterImage
  3
ISM
 90
127
280
0
281
1
  0
CLASS
  1
ACAD_EVALUATION_GRAPH
  2
AcDbEvalGraph
  3
ObjectDBX Classes
 90
1153
280
0
281
0
  0
CLASS
  1
BLOCKPOINTPARAMETER
  2
AcDbBlockPointParameter
  3
ObjectDBX Classes
 90
1153
280
0
281
0
  0
CLASS
  1
BLOCKBASEPOINTPARAMETER
  2
AcDbBlockBasepointParameter
  3
ObjectDBX Classes
 90
1153
280
0
281
0
  0
CLASS
  1
BLOCKLOOKUPPARAMETER
  2
AcDbBlockLookupParameter
  3
ObjectDBX Classes
 90
1153
280
0
281
0
  0
CLASS
  1
BLOCKVISIBILITYPARAMETER
  2
AcDbBlockVisibilityParameter
  3
ObjectDBX Classes
 90
1153
280
0
281
0
  0
CLASS
  1
BLOCKPROPERTIESTABLE
  2
AcDbBlockPropertiesTable
  3
ObjectDBX Classes
 90
1153
280
0
281
0
  0
CLASS
  1
BLOCKPOLARPARAMETER
  2
AcDbBlockPolarParameter
  3
ObjectDBX Classes
 90
1153
280
0
281
0
  0
CLASS
  1
BLOCKROTATIONPARAMETER
  2
AcDbBlockRotationParameter
  3
ObjectDBX Classes
 90
1153
280
0
281
0
  0
CLASS
  1
BLOCKLINEARPARAMETER
  2
AcDbBlockLinearParameter
  3
ObjectDBX Classes
 90
1153
280
0
281
0
  0
CLASS
  1
BLOCKXYPARAMETER
  2
AcDbBlockXYParameter
  3
ObjectDBX Classes
 90
1153
280
0
281
0
  0
CLASS
  1
BLOCKFLIPPARAMETER
  2
AcDbBlockFlipParameter
  3
ObjectDBX Classes
 90
1153
280
0
281
0
  0
CLASS
  1
BLOCKALIGNMENTPARAMETER
  2
AcDbBlockAlignmentParameter
  3
ObjectDBX Classes
 90
1153
280
0
281
0
  0
CLASS
  1
BLOCKROTATEACTION
  2
AcDbBlockRotateAction
  3
ObjectDBX Classes
 90
1153
280
0
281
0
  0
CLASS
  1
BLOCKSCALEACTION
  2
AcDbBlockScaleAction
  3
ObjectDBX Classes
 90
1153
280
0
281
0
  0
CLASS
  1
BLOCKARRAYACTION
  2
AcDbBlockArrayAction
  3
ObjectDBX Classes
 90
1153
280
0
281
0
  0
CLASS
  1
BLOCKFLIPACTION
  2
AcDbBlockFlipAction
  3
ObjectDBX Classes
 90
1153
280
0
281
0
  0
CLASS
  1
BLOCKLOOKUPACTION
  2
AcDbBlockLookupAction
  3
ObjectDBX Classes
 90
1153
280
0
281
0
  0
CLASS
  1
BLOCKMOVEACTION
  2
AcDbBlockMoveAction
  3
ObjectDBX Classes
 90
1153
280
0
281
0
  0
CLASS
  1
BLOCKPOLARSTRETCHACTION
  2
AcDbBlockPolarStretchAction
  3
ObjectDBX Classes
 90
1153
280
0
281
0
  0
CLASS
  1
BLOCKSTRETCHACTION
  2
AcDbBlockStretchAction
  3
ObjectDBX Classes
 90
1153
280
0
281
0
  0
CLASS
  1
BLOCKALIGNMENTGRIP
  2
AcDbBlockAlignmentGrip
  3
ObjectDBX Classes
 90
1153
280
0
281
0
  0
CLASS
  1
BLOCKFLIPGRIP
  2
AcDbBlockFlipGrip
  3
ObjectDBX Classes
 90
1153
280
0
281
0
  0
CLASS
  1
ACDB_BLOCKREPRESENTATION_DATA
  2
AcDbBlockRepresentationData
  3
ObjectDBX Classes
 90
1153
280
0
281
0
  0
CLASS
  1
ACDB_DYNAMICBLOCKPURGEPREVENTER_VERSION
  2
AcDbDynamicBlockPurgePreventer
  3
ObjectDBX Classes
 90
1153
280
0
281
0
  0
CLASS
  1
BLOCKLINEARGRIP
  2
AcDbBlockLinearGrip
  3
ObjectDBX Classes
 90
1153
280
0
281
0
  0
CLASS
  1
BLOCKLOOKUPGRIP
  2
AcDbBlockLookupGrip
  3
ObjectDBX Classes
 90
1153
280
0
281
0
  0
CLASS
  1
BLOCKPOLARGRIP
  2
AcDbBlockPolarGrip
  3
ObjectDBX Classes
 90
1153
280
0
281
0
  0
CLASS
  1
BLOCKPROPERTIESTABLEGRIP
  2
AcDbBlockPropertiesTableGrip
  3
ObjectDBX Classes
 90
1153
280
0
281
0
  0
CLASS
  1
BLOCKROTATIONGRIP
  2
AcDbBlockRotationGrip
  3
ObjectDBX Classes
 90
1153
280
0
281
0
  0
CLASS
  1
BLOCKVISIBILITYGRIP
  2
AcDbBlockVisibilityGrip
  3
ObjectDBX Classes
 90
1153
280
0
281
0
  0
CLASS
  1
BLOCKXYGRIP
  2
AcDbBlockXYGrip
  3
ObjectDBX Classes
 90
1153
280
0
281
0
  0
CLASS
  1
BLOCKGRIPLOCATIONCOMPONENT
  2
AcDbBlockGripExpr
  3
ObjectDBX Classes
 90
1153
280
0
281
0
  0
CLASS
  1
ACDB_DYNAMICBLOCKPROXYNODE
  2
AcDbDynamicBlockProxyNode
  3
ObjectDBX Classes
 90
1153
280
0
281
0
  0
CLASS
  1
BLOCKLINEARCONSTRAINTPARAMETER
  2
AcDbBlockLinearConstraintParameter
  3
ObjectDBX Classes
 90
1153
280
0
281
0
  0
CLASS
  1
BLOCKHORIZONTALCONSTRAINTPARAMETER
  2
AcDbBlockHorizontalConstraintParameter
  3
ObjectDBX Classes
 90
1153
280
0
281
0
  0
CLASS
  1
BLOCKVERTICALCONSTRAINTPARAMETER
  2
AcDbBlockVerticalConstraintParameter
  3
ObjectDBX Classes
 90
1153
280
0
281
0
  0
CLASS
  1
BLOCKALIGNEDCONSTRAINTPARAMETER
  2
AcDbBlockAlignedConstraintParameter
  3
ObjectDBX Classes
 90
1153
280
0
281
0
  0
CLASS
  1
BLOCKANGULARCONSTRAINTPARAMETER
  2
AcDbBlockAngularConstraintParameter
  3
ObjectDBX Classes
 90
1153
280
0
281
0
  0
CLASS
  1
BLOCKDIAMETRICCONSTRAINTPARAMETER
  2
AcDbBlockDiametricConstraintParameter
  3
ObjectDBX Classes
 90
1153
280
0
281
0
  0
CLASS
  1
BLOCKRADIALCONSTRAINTPARAMETER
  2
AcDbBlockRadialConstraintParameter
  3
ObjectDBX Classes
 90
1153
280
0
281
0
  0
ENDSEC
  0
SECTION
  2
TABLES
  0
TABLE
  2
VPORT
  5
8
330
0
100
AcDbSymbolTable
 70
1
  0
VPORT
  5
155
330
8
100
AcDbSymbolTableRecord
100
AcDbViewportTableRecord
  2
*Active
 70
64
 10
0
 20
0
 11
1
 21
1
 12
295.00000009999991
 22
100.00000010000001
 13
0
 23
0
 14
1
 24
1
 15
0
 25
0
 16
0
 26
0
 36
1
 17
0
 27
0
 37
0
 40
200.00000000000003
 41
2.9499999999999988
 42
50
 43
0
 44
0
 50
0
 51
0
 71
0
 72
20000
 73
20000
 74
1
 75
0
 76
0
 77
0
 78
0
281
0
 65
1
110
0
120
0
130
0
111
1
121
0
131
0
112
0
122
1
132
0
 79
0
146
0
  0
ENDTAB
  0
TABLE
  2
LTYPE
  5
5
100
AcDbSymbolTable
 70
3
  0
LTYPE
  5
16
330
5
100
AcDbSymbolTableRecord
100
AcDbLinetypeTableRecord
  2
Continuous
  3
Solid line
 70
64
 72
65
 73
0
 40
0
  0
LTYPE
  5
14
330
5
100
AcDbSymbolTableRecord
100
AcDbLinetypeTableRecord
  2
ByBlock
  3

 70
64
 72
65
 73
0
 40
0
  0
LTYPE
  5
15
330
5
100
AcDbSymbolTableRecord
100
AcDbLinetypeTableRecord
  2
ByLayer
  3

 70
64
 72
65
 73
0
 40
0
  0
ENDTAB
  0
TABLE
  2
LAYER
  5
2
100
AcDbSymbolTable
 70
3
  0
LAYER
  5
10
330
2
100
AcDbSymbolTableRecord
100
AcDbLayerTableRecord
 70
64
  2
0
 62
7
  6
Continuous
370
-3
390
F
  0
LAYER
  5
27
330
2
100
AcDbSymbolTableRecord
100
AcDbLayerTableRecord
 70
64
  2
sheet
 62
18
  6
Continuous
370
-3
390
F
  0
LAYER
  5
28
330
2
100
AcDbSymbolTableRecord
100
AcDbLayerTableRecord
 70
64
  2
DEFPOINTS
 62
7
  6
Continuous
290
0
370
-3
390
F
  0
ENDTAB
  0
TABLE
  2
STYLE
  5
3
100
AcDbSymbolTable
 70
1
  0
STYLE
  5
11
330
3
100
AcDbSymbolTableRecord
100
AcDbTextStyleTableRecord
  2
Standard
 70
64
 40
0
 41
1
 50
0
 71
0
 42
0.2
  3
txt.shx
  0
ENDTAB
  0
TABLE
  2
VIEW
  5
6
100
AcDbSymbolTable
 70
0
  0
ENDTAB
  0
TABLE
  2
UCS
  5
7
100
AcDbSymbolTable
 70
0
  0
ENDTAB
  0
TABLE
  2
APPID
  5
9
330
0
100
AcDbSymbolTable
 70
2
  0
APPID
  5
12
330
0
100
AcDbSymbolTableRecord
100
AcDbRegAppTableRecord
  2
ACAD
 70
64
  0
APPID
  5
178
330
0
100
AcDbSymbolTableRecord
100
AcDbRegAppTableRecord
  2
ACAD_MLEADERVER
 70
64
  0
ENDTAB
  0
TABLE
  2
DIMSTYLE
  5
A
330
0
100
AcDbSymbolTable
 70
1
100
AcDbDimStyleTable
 71
0
  0
DIMSTYLE
105
154
330
A
100
AcDbSymbolTableRecord
100
AcDbDimStyleTableRecord
  2
Standard
 70
64
  3

  4

 40
1
 41
0.18
 42
0.0625
 43
0.38
 44
0.18
 45
0
 46
0
 47
0
 48
0
140
0.18
141
0.09
142
0
143
1
144
1
145
0
146
1
147
0.09
148
0
 71
0
 72
0
 73
1
 74
1
 75
0
 76
0
 77
0
 78
0
 79
0
170
0
171
2
172
0
173
0
174
0
175
0
179
0
271
4
272
4
273
2
274
0
275
0
276
0
277
2
278
46
279
0
280
0
281
0
282
0
283
1
284
0
285
0
286
0
288
0
289
0
340
11
371
-2
372
-2
  0
ENDTAB
  0
TABLE
  2
BLOCK_RECORD
  5
1
330
0
100
AcDbSymbolTable
 70
3
  0
BLOCK_RECORD
  5
1F
330
1
100
AcDbSymbolTableRecord
100
AcDbBlockTableRecord
  2
*Model_Space
340
22
  0
BLOCK_RECORD
  5
151
330
1
100
AcDbSymbolTableRecord
100
AcDbBlockTableRecord
  2
*Paper_Space
340
1E
  0
ENDTAB
  0
ENDSEC
  0
SECTION
  2
BLOCKS
  0
BLOCK
  5
20
330
1F
100
AcDbEntity
  8
0
100
AcDbBlockBegin
  2
*Model_Space
 70
64
 10
0
 20
0
 30
0
  3
*Model_Space
  0
ENDBLK
  5
21
330
1F
100
AcDbEntity
  8
0
100
AcDbBlockEnd
  0
BLOCK
  5
152
330
151
100
AcDbEntity
  8
0
 67
1
100
AcDbBlockBegin
  2
*Paper_Space
 70
64
 10
0
 20
0
 30
0
  3
*Paper_Space
  0
ENDBLK
  5
153
330
151
100
AcDbEntity
  8
0
100
AcDbBlockEnd
  0
ENDSEC
  0
SECTION
  2
ENTITIES
  0
LINE
  5
29
330
1F
100
AcDbEntity
  8
sheet
 62
18
100
AcDbLine
 10
590.00000009999985
 20
1E-07
 30
0
 11
590.00000009999985
 21
200.0000001
 31
0
  0
LINE
  5
2A
330
1F
100
AcDbEntity
  8
sheet
 62
18
100
AcDbLine
 10
590.00000009999985
 20
200.0000001
 30
0
 11
9.9999965641472954E-08
 21
200.00000010000002
 31
0
  0
LINE
  5
2B
330
1F
100
AcDbEntity
  8
sheet
 62
18
100
AcDbLine
 10
9.9999965641472954E-08
 20
200.00000010000002
 30
0
 11
9.9999965641472954E-08
 21
1.0000003612708057E-07
 31
0
  0
LINE
  5
2C
330
1F
100
AcDbEntity
  8
sheet
 62
18
100
AcDbLine
 10
9.9999965641472954E-08
 20
1.0000003612708057E-07
 30
0
 11
590.00000009999985
 21
1E-07
 31
0
  0
LINE
  5
2D
330
1F
100
AcDbEntity
  8
0
 62
7
100
AcDbLine
 10
187.39004594176868
 20
180.67946230043373
 30
0
 11
479.33793991212411
 21
176.95258234225389
 31
0
  0
ARC
  5
2E
330
1F
100
AcDbEntity
  8
0
 62
7
100
AcDbCircle
 10
479.27411728475283
 20
171.95298969162369
 30
0
 40
5
100
AcDbArc
 50
359.26862670110023
 51
89.268626701099862
  0
LINE
  5
2F
330
1F
100
AcDbEntity
  8
0
 62
7
100
AcDbLine
 10
484.27370993538307
 20
171.88916706425243
 30
0
 11
483.19510753280861
 21
87.396051268602193
 31
0
  0
ARC
  5
30
330
1F
100
AcDbEntity
  8
0
 62
7
100
AcDbCircle
 10
498.19388548469919
 20
87.20458338648848
 30
0
 40
15.0000000000001
100
AcDbArc
 50
179.26862670110037
 51
269.26862670110012
  0
LINE
  5
31
330
1F
100
AcDbEntity
  8
0
 62
7
100
AcDbLine
 10
498.00241760258541
 20
72.2058054345978
 30
0
 11
568.49667397647
 21
71.305906388662933
 31
0
  0
ARC
  5
32
330
1F
100
AcDbEntity
  8
0
 62
7
100
AcDbCircle
 10
568.68814185858378
 20
86.304684340553408
 30
0
 40
15.0000000000001
100
AcDbArc
 50
269.26862670110006
 51
359.26862670110035
  0
LINE
  5
33
330
1F
100
AcDbEntity
  8
0
 62
7
100
AcDbLine
 10
583.68691981047436
 20
86.1132164584397
 30
0
 11
584.99492219128308
 21
188.57654896990596
 31
0
  0
ARC
  5
34
330
1F
100
AcDbEntity
  8
0
 62
7
100
AcDbCircle
 10
582.995085131031
 20
188.60207802085446
 30
0
 40
2.00000000000003
100
AcDbArc
 50
359.2686267011
 51
89.268626701099222
  0
LINE
  5
35
330
1F
100
AcDbEntity
  8
0
 62
7
100
AcDbLine
 10
583.02061418197957
 20
190.60191508110654
 30
0
 11
577.02110300122433
 21
190.67850223395206
 31
0
  0
ARC
  5
36
330
1F
100
AcDbEntity
  8
0
 62
7
100
AcDbCircle
 10
576.99557395027477
 20
188.6786651737
 30
0
 40
2.00000000000003
100
AcDbArc
 50
89.268626701069891
 51
179.26862670110003
  0
LINE
  5
37
330
1F
100
AcDbEntity
  8
0
 62
7
100
AcDbLine
 10
574.99573689002273
 20
188.70419422464852
 30
0
 11
573.687734509214
 21
86.240861713182227
 31
0
  0
ARC
  5
38
330
1F
100
AcDbEntity
  8
0
 62
7
100
AcDbCircle
 10
568.68814185858389
 20
86.3046843405536
 30
0
 40
5.00000000000014
100
AcDbArc
 50
269.26862670109927
 51
359.26862670109875
  0
LINE
  5
39
330
1F
100
AcDbEntity
  8
0
 62
7
100
AcDbLine
 10
568.62431923121255
 20
81.305091689923316
 30
0
 11
498.13006285732797
 21
82.204990735858189
 31
0
  0
ARC
  5
3A
330
1F
100
AcDbEntity
  8
0
 62
7
100
AcDbCircle
 10
498.19388548469919
 20
87.20458338648838
 30
0
 40
5
100
AcDbArc
 50
179.26862670110003
 51
269.26862670110052
  0
LINE
  5
3B
330
1F
100
AcDbEntity
  8
0
 62
7
100
AcDbLine
 10
493.19429283406896
 20
87.268406013859646
 30
0
 11
494.27289523664342
 21
171.7615218095099
 31
0
  0
ARC
  5
3C
330
1F
100
AcDbEntity
  8
0
 62
7
100
AcDbCircle
 10
479.27411728475283
 20
171.95298969162459
 30
0
 40
15
100
AcDbArc
 50
359.26862670109659
 51
89.268626701099862
  0
LINE
  5
3D
330
1F
100
AcDbEntity
  8
0
 62
7
100
AcDbLine
 10
479.46558516686667
 20
186.95176764351515
 30
0
 11
187.51769119651124
 21
190.67864760169411
 31
0
  0
ARC
  5
3E
330
1F
100
AcDbEntity
  8
0
 62
7
100
AcDbCircle
 10
187.49216214556276
 20
188.678810541442
 30
0
 40
2.00000000000003
100
AcDbArc
 50
89.268626701100857
 51
179.26862670109924
  0
LINE
  5
3F
330
1F
100
AcDbEntity
  8
0
 62
7
100
AcDbLine
 10
185.49232508531065
 20
188.70433959239054
 30
0
 11
185.41573793246511
 21
182.70482841163431
 31
0
  0
ARC
  5
40
330
1F
100
AcDbEntity
  8
0
 62
7
100
AcDbCircle
 10
187.41557499271721
 20
182.67929936068583
 30
0
 40
2.00000000000003
100
AcDbArc
 50
179.26862670110086
 51
269.26862670109921
  0
LINE
  5
41
330
1F
100
AcDbEntity
  8
0
 62
7
100
AcDbLine
 10
195.49151038652303
 20
188.5766943376486
 30
0
 11
193.49167332627098
 21
188.60222338859711
 31
0
  0
ARC
  5
42
330
1F
100
AcDbEntity
  8
0
 62
7
100
AcDbCircle
 10
193.45337974982408
 20
185.60246779821932
 30
0
 40
3
100
AcDbArc
 50
89.268626700638862
 51
269.26862670063997
  0
LINE
  5
43
330
1F
100
AcDbEntity
  8
0
 62
7
100
AcDbLine
 10
193.41508617337723
 20
182.60271220784151
 30
0
 11
195.41492323367754
 21
182.57718315689237
 31
0
  0
ARC
  5
44
330
1F
100
AcDbEntity
  8
0
 62
7
100
AcDbCircle
 10
195.45321681010029
 20
185.5769387472705
 30
0
 40
3
100
AcDbArc
 50
269.26862670110029
 51
89.2686267011003
  0
LINE
  5
45
330
1F
100
AcDbEntity
  8
0
 62
7
100
AcDbLine
 10
576.9445158484067
 20
184.67899105319233
 30
0
 11
576.91898679746225
 21
182.6791539929452
 31
0
  0
ARC
  5
46
330
1F
100
AcDbEntity
  8
0
 62
7
100
AcDbCircle
 10
579.91874240953689
 20
182.64086211590188
 30
0
 40
3.0000000000031
100
AcDbArc
 50
179.26865915950171
 51
359.26859424275443
  0
LINE
  5
47
330
1F
100
AcDbEntity
  8
0
 62
7
100
AcDbLine
 10
582.91849797822351
 20
182.60256684010255
 30
0
 11
582.944027029168
 21
184.60240390034991
 31
0
  0
ARC
  5
48
330
1F
100
AcDbEntity
  8
0
 62
7
100
AcDbCircle
 10
579.94427147041381
 20
184.64069995428781
 30
0
 40
3.00000000000352
100
AcDbArc
 50
359.2685793801918
 51
179.26867402206864
  0
ARC
  5
49
330
1F
100
AcDbEntity
  8
0
 62
7
100
AcDbCircle
 10
295.40480756024306
 20
156.28707408668092
 30
0
 40
5
100
AcDbArc
 50
359.00000001790016
 51
89.000000017900163
  0
LINE
  5
4A
330
1F
100
AcDbEntity
  8
0
 62
7
100
AcDbLine
 10
300.40404603605225
 20
156.19981205605634
 30
0
 11
299.28484872024052
 21
92.081039627992439
 31
0
  0
ARC
  5
4B
330
1F
100
AcDbEntity
  8
0
 62
7
100
AcDbCircle
 10
294.28561024443127
 20
92.16830165861613
 30
0
 40
5
100
AcDbArc
 50
269.00000001790011
 51
359.00000001791022
  0
LINE
  5
4C
330
1F
100
AcDbEntity
  8
0
 62
7
100
AcDbLine
 10
294.1983482138067
 20
87.169063182806909
 30
0
 11
224.70893340005858
 21
88.382005408488652
 31
0
  0
ARC
  5
4D
330
1F
100
AcDbEntity
  8
0
 62
7
100
AcDbCircle
 10
224.67402858780872
 20
86.382310018164972
 30
0
 40
2
100
AcDbArc
 50
89.000000017899183
 51
179.0000000179
  0
LINE
  5
4E
330
1F
100
AcDbEntity
  8
0
 62
7
100
AcDbLine
 10
222.67433319748505
 20
86.4172148304148
 30
0
 11
222.56961876073552
 21
80.418128659443738
 31
0
  0
ARC
  5
4F
330
1F
100
AcDbEntity
  8
0
 62
7
100
AcDbCircle
 10
224.56931415105925
 20
80.3832238471939
 30
0
 40
2
100
AcDbArc
 50
179.00000001790002
 51
269.00000001789914
  0
LINE
  5
50
330
1F
100
AcDbEntity
  8
0
 62
7
100
AcDbLine
 10
224.53440933880938
 20
78.383528456870224
 30
0
 11
294.02382415255755
 21
77.170586231189375
 31
0
  0
ARC
  5
51
330
1F
100
AcDbEntity
  8
0
 62
7
100
AcDbCircle
 10
294.28561024443241
 20
92.168301658617011
 30
0
 40
15
100
AcDbArc
 50
269.00000001789579
 51
359.0000000179
  0
LINE
  5
52
330
1F
100
AcDbEntity
  8
0
 62
7
100
AcDbLine
 10
309.28332567186004
 20
91.906515566743252
 30
0
 11
310.40252298767069
 21
156.02528799480717
 31
0
  0
ARC
  5
53
330
1F
100
AcDbEntity
  8
0
 62
7
100
AcDbCircle
 10
295.40480756024306
 20
156.28707408668092
 30
0
 40
15
100
AcDbArc
 50
359.00000001790005
 51
89.000000017900163
  0
LINE
  5
54
330
1F
100
AcDbEntity
  8
0
 62
7
100
AcDbLine
 10
295.66659365211677
 20
171.28478951410858
 30
0
 11
156.21615499750357
 21
173.71890593151372
 31
0
  0
ARC
  5
55
330
1F
100
AcDbEntity
  8
0
 62
7
100
AcDbCircle
 10
156.18125018525376
 20
171.71921054119002
 30
0
 40
2
100
AcDbArc
 50
89.0000000179008
 51
179.00000001790002
  0
LINE
  5
56
330
1F
100
AcDbEntity
  8
0
 62
7
100
AcDbLine
 10
154.18155479493004
 20
171.75411535343986
 30
0
 11
154.0768403581805
 21
165.75502918246789
 31
0
  0
ARC
  5
57
330
1F
100
AcDbEntity
  8
0
 62
7
100
AcDbCircle
 10
156.07653574850423
 20
165.72012437021809
 30
0
 40
2.00000000000003
100
AcDbArc
 50
179.00000001790085
 51
269.0000000178992
  0
LINE
  5
58
330
1F
100
AcDbEntity
  8
0
 62
7
100
AcDbLine
 10
156.04163093625436
 20
163.72042897989436
 30
0
 11
295.49206959086763
 21
161.28631256249014
 31
0
  0
LINE
  5
59
330
1F
100
AcDbEntity
  8
0
 62
7
100
AcDbLine
 10
161.68041249924329
 20
171.62322230766708
 30
0
 11
159.68071710891758
 21
171.65812711991694
 31
0
  0
ARC
  5
5A
330
1F
100
AcDbEntity
  8
0
 62
7
100
AcDbCircle
 10
159.62835989054287
 20
168.65858403443141
 30
0
 40
3
100
AcDbArc
 50
89.0000000179008
 51
269.00000001789971
  0
LINE
  5
5B
330
1F
100
AcDbEntity
  8
0
 62
7
100
AcDbLine
 10
159.5760026721681
 20
165.65904094894589
 30
0
 11
161.57569806249177
 21
165.62413613669514
 31
0
  0
ARC
  5
5C
330
1F
100
AcDbEntity
  8
0
 62
7
100
AcDbCircle
 10
161.6280552808675
 20
168.6236792221811
 30
0
 40
3.00000000000045
100
AcDbArc
 50
269.0000000178814
 51
89.000000017880339
  0
LINE
  5
5D
330
1F
100
AcDbEntity
  8
0
 62
7
100
AcDbLine
 10
228.56870493171067
 20
80.31341422269297
 30
0
 11
230.56840032203144
 21
80.27850941044619
 31
0
  0
ARC
  5
5E
330
1F
100
AcDbEntity
  8
0
 62
7
100
AcDbCircle
 10
230.62075754040211
 20
83.278052495934389
 30
0
 40
3.00000000000261
100
AcDbArc
 50
269.00000001797872
 51
89.0000000179766
  0
LINE
  5
5F
330
1F
100
AcDbEntity
  8
0
 62
7
100
AcDbLine
 10
230.6731147587729
 20
86.2775955814226
 30
0
 11
228.67341936845219
 21
86.31250039366418
 31
0
  0
ARC
  5
60
330
1F
100
AcDbEntity
  8
0
 62
7
100
AcDbCircle
 10
228.62106369324994
 20
83.312957281242475
 30
0
 40
3.0000000000004
100
AcDbArc
 50
89.000029494813276
 51
268.99997054113925
  0
ARC
  5
61
330
1F
100
AcDbEntity
  8
0
 62
7
100
AcDbCircle
 10
331.86088965996396
 20
96.15377022473497
 30
0
 40
5
100
AcDbArc
 50
179.00000001799998
 51
269.00000001798941
  0
LINE
  5
62
330
1F
100
AcDbEntity
  8
0
 62
7
100
AcDbLine
 10
326.8616511841546
 20
96.241032255350831
 30
0
 11
327.89358646923768
 21
155.36056620760755
 31
0
  0
ARC
  5
63
330
1F
100
AcDbEntity
  8
0
 62
7
100
AcDbCircle
 10
332.89282494504704
 20
155.27330417699267
 30
0
 40
5
100
AcDbArc
 50
89.000000017999838
 51
179.00000001801124
  0
LINE
  5
64
330
1F
100
AcDbEntity
  8
0
 62
7
100
AcDbLine
 10
332.98008697566291
 20
160.27254265280206
 30
0
 11
382.47254788617659
 21
159.408648549705
 31
0
  0
ARC
  5
65
330
1F
100
AcDbEntity
  8
0
 62
7
100
AcDbCircle
 10
382.507452698422
 20
161.40834394002871
 30
0
 40
2
100
AcDbArc
 50
269.00000001802618
 51
359.00000001800015
  0
LINE
  5
66
330
1F
100
AcDbEntity
  8
0
 62
7
100
AcDbLine
 10
384.50714808874579
 20
161.37343912778238
 30
0
 11
384.61186252548566
 21
167.3725252987536
 31
0
  0
ARC
  5
67
330
1F
100
AcDbEntity
  8
0
 62
7
100
AcDbCircle
 10
382.61216713516194
 20
167.40743011099997
 30
0
 40
2
100
AcDbArc
 50
359.00000001799935
 51
89.000000018000151
  0
LINE
  5
68
330
1F
100
AcDbEntity
  8
0
 62
7
100
AcDbLine
 10
382.64707194740828
 20
169.40712550132372
 30
0
 11
333.15461103689461
 21
170.27101960441979
 31
0
  0
ARC
  5
69
330
1F
100
AcDbEntity
  8
0
 62
7
100
AcDbCircle
 10
332.89282494504795
 20
155.27330417699167
 30
0
 40
15
100
AcDbArc
 50
89.000000018003533
 51
179.00000001800007
  0
LINE
  5
6A
330
1F
100
AcDbEntity
  8
0
 62
7
100
AcDbLine
 10
317.8951095176198
 20
155.53509026883924
 30
0
 11
316.8631742325349
 21
96.415556316582581
 31
0
  0
ARC
  5
6B
330
1F
100
AcDbEntity
  8
0
 62
7
100
AcDbCircle
 10
331.86088965996305
 20
96.153770224735
 30
0
 40
15
100
AcDbArc
 50
179.000000018
 51
269.00000001799981
  0
LINE
  5
6C
330
1F
100
AcDbEntity
  8
0
 62
7
100
AcDbLine
 10
331.59910356811542
 20
81.156054797306879
 30
0
 11
405.05959434204919
 21
79.873797184274451
 31
0
  0
ARC
  5
6D
330
1F
100
AcDbEntity
  8
0
 62
7
100
AcDbCircle
 10
405.09449915429559
 20
81.873492574598188
 30
0
 40
2
100
AcDbArc
 50
269.00000001799856
 51
359.00000001800015
  0
LINE
  5
6E
330
1F
100
AcDbEntity
  8
0
 62
7
100
AcDbLine
 10
407.09419454461931
 20
81.83858776235185
 30
0
 11
407.19890898135839
 21
87.837673933323089
 31
0
  0
ARC
  5
6F
330
1F
100
AcDbEntity
  8
0
 62
7
100
AcDbCircle
 10
405.19921359103466
 20
87.872578745569413
 30
0
 40
2.00000000000003
100
AcDbArc
 50
359.00000001800055
 51
89.000000018001813
  0
LINE
  5
70
330
1F
100
AcDbEntity
  8
0
 62
7
100
AcDbLine
 10
405.23411840328095
 20
89.872274135893193
 30
0
 11
331.77362762934717
 21
91.154531748925621
 31
0
  0
LINE
  5
71
330
1F
100
AcDbEntity
  8
0
 62
7
100
AcDbLine
 10
399.59533684030578
 20
81.969480808111555
 30
0
 11
401.5950322306295
 21
81.934575995865217
 31
0
  0
ARC
  5
72
330
1F
100
AcDbEntity
  8
0
 62
7
100
AcDbCircle
 10
401.647389448999
 20
84.9341190813514
 30
0
 40
3.00000000000057
100
AcDbArc
 50
269.00000001800089
 51
89.000000017998715
  0
LINE
  5
73
330
1F
100
AcDbEntity
  8
0
 62
7
100
AcDbLine
 10
401.69974666736857
 20
87.933662166837593
 30
0
 11
399.70005127704474
 21
87.9685669790828
 31
0
  0
ARC
  5
74
330
1F
100
AcDbEntity
  8
0
 62
7
100
AcDbCircle
 10
399.64769405867526
 20
84.969023893597182
 30
0
 40
3
100
AcDbArc
 50
89.0000000180007
 51
269.00000001800066
  0
LINE
  5
75
330
1F
100
AcDbEntity
  8
0
 62
7
100
AcDbLine
 10
378.61277635451268
 20
167.47723973549267
 30
0
 11
376.61308096419066
 21
167.512144547738
 31
0
  0
ARC
  5
76
330
1F
100
AcDbEntity
  8
0
 62
7
100
AcDbCircle
 10
376.56072316648977
 20
164.51260147236172
 30
0
 40
3.00000000000301
100
AcDbArc
 50
88.999988951901273
 51
269.00001108424215
  0
LINE
  5
77
330
1F
100
AcDbEntity
  8
0
 62
7
100
AcDbLine
 10
376.50836652745903
 20
161.51305837676074
 30
0
 11
378.50806191777531
 21
161.4781535645175
 31
0
  0
ARC
  5
78
330
1F
100
AcDbEntity
  8
0
 62
7
100
AcDbCircle
 10
378.56042211353758
 20
164.47769659803444
 30
0
 40
3.00000000000341
100
AcDbArc
 50
268.99994314532563
 51
89.000056890707484
  0
LINE
  5
79
330
1F
100
AcDbEntity
  8
0
 62
7
100
AcDbLine
 10
366.23640974488751
 20
42.784467373339126
 30
0
 11
366.3460248982874
 21
48.783465999625292
 31
0
  0
ARC
  5
7A
330
1F
100
AcDbEntity
  8
0
 62
7
100
AcDbCircle
 10
364.34635868952637
 20
48.820004384090751
 30
0
 40
2.00000000000003
100
AcDbArc
 50
358.95319415353339
 51
88.953194153498771
  0
LINE
  5
7B
330
1F
100
AcDbEntity
  8
0
 62
7
100
AcDbLine
 10
364.38289707399304
 20
50.819670592851779
 30
0
 11
199.10081179249534
 21
53.8397448187114
 31
0
  0
ARC
  5
7C
330
1F
100
AcDbEntity
  8
0
 62
7
100
AcDbCircle
 10
199.21042694590022
 20
59.8387434449938
 30
0
 40
5.99999999999951
100
AcDbArc
 50
236.60575065400045
 51
268.953194153452
  0
LINE
  5
7D
330
1F
100
AcDbEntity
  8
0
 62
7
100
AcDbLine
 10
195.90804527331863
 20
54.829324787245874
 30
0
 11
144.33029790580866
 21
88.831155988892093
 31
0
  0
ARC
  5
7E
330
1F
100
AcDbEntity
  8
0
 62
7
100
AcDbCircle
 10
147.6326795783844
 20
93.840574646644171
 30
0
 40
6.00000000000008
100
AcDbArc
 50
178.95319415349226
 51
236.60575065406894
  0
LINE
  5
7F
330
1F
100
AcDbEntity
  8
0
 62
7
100
AcDbLine
 10
141.63368095210137
 20
93.950189800044853
 30
0
 11
142.96583040739273
 21
166.85582834032786
 31
0
  0
ARC
  5
80
330
1F
100
AcDbEntity
  8
0
 62
7
100
AcDbCircle
 10
140.9661641986317
 20
166.89236672479248
 30
0
 40
2.00000000000003
100
AcDbArc
 50
358.95319415355743
 51
88.953194153498757
  0
LINE
  5
81
330
1F
100
AcDbEntity
  8
0
 62
7
100
AcDbLine
 10
141.00270258309837
 20
168.89203293355348
 30
0
 11
135.00370395681642
 21
169.00164808695533
 31
0
  0
ARC
  5
82
330
1F
100
AcDbEntity
  8
0
 62
7
100
AcDbCircle
 10
134.96716557234976
 20
167.00198187819433
 30
0
 40
2.00000000000003
100
AcDbArc
 50
88.953194153498757
 51
178.95319415349957
  0
LINE
  5
83
330
1F
100
AcDbEntity
  8
0
 62
7
100
AcDbLine
 10
132.96749936358879
 20
167.03852026266097
 30
0
 11
131.63534990829538
 21
94.132881722377988
 31
0
  0
ARC
  5
84
330
1F
100
AcDbEntity
  8
0
 62
7
100
AcDbCircle
 10
147.63267957838337
 20
93.840574646645109
 30
0
 40
15.9999999999999
100
AcDbArc
 50
178.95319415350039
 51
236.60575065405195
  0
LINE
  5
85
330
1F
100
AcDbEntity
  8
0
 62
7
100
AcDbLine
 10
138.82632845151062
 20
80.482124892641892
 30
0
 11
190.40407581902349
 21
46.480293690991459
 31
0
  0
ARC
  5
86
330
1F
100
AcDbEntity
  8
0
 62
7
100
AcDbCircle
 10
199.21042694589727
 20
59.838743444993966
 30
0
 40
16.0000000000001
100
AcDbArc
 50
236.60575065404751
 51
268.95319415349263
  0
LINE
  5
87
330
1F
100
AcDbEntity
  8
0
 62
7
100
AcDbLine
 10
198.91811987016223
 20
43.841413774905973
 30
0
 11
364.20020515165993
 21
40.821339549046805
 31
0
  0
ARC
  5
88
330
1F
100
AcDbEntity
  8
0
 62
7
100
AcDbCircle
 10
364.23674353612648
 20
42.821005757807825
 30
0
 40
2.00000000000003
100
AcDbArc
 50
268.953194153502
 51
358.95319415344056
  0
LINE
  5
89
330
1F
100
AcDbEntity
  8
0
 62
7
100
AcDbLine
 10
134.91235799564294
 20
164.00248256505597
 30
0
 11
134.85755041894294
 21
161.00298325191349
 31
0
  0
ARC
  5
8A
330
1F
100
AcDbEntity
  8
0
 62
7
100
AcDbCircle
 10
137.85704973208544
 20
160.94817567521352
 30
0
 40
3.00000000000057
100
AcDbArc
 50
178.95319415349965
 51
358.95319415349985
  0
LINE
  5
8B
330
1F
100
AcDbEntity
  8
0
 62
7
100
AcDbLine
 10
140.85654904522693
 20
160.89336809851358
 30
0
 11
140.9113566219259
 21
163.89286741165611
 31
0
  0
ARC
  5
8C
330
1F
100
AcDbEntity
  8
0
 62
7
100
AcDbCircle
 10
137.91185729375485
 20
163.94767416581934
 30
0
 40
3.00000000000011
100
AcDbArc
 50
358.95320986541628
 51
178.953178441584
  0
ARC
  5
8D
330
1F
100
AcDbEntity
  8
0
 62
7
100
AcDbCircle
 10
355.79297031554876
 20
45.975793194152615
 30
0
 40
2.99999999999812
100
AcDbArc
 50
88.953205422738179
 51
268.95318288426239
  0
LINE
  5
8E
330
1F
100
AcDbEntity
  8
0
 62
7
100
AcDbLine
 10
355.73816214889143
 20
42.976293891792778
 30
0
 11
358.73766146202996
 21
42.921486315093127
 31
0
  0
ARC
  5
8F
330
1F
100
AcDbEntity
  8
0
 62
7
100
AcDbCircle
 10
358.79246659643769
 20
45.92098567285975
 30
0
 40
2.99999999999997
100
AcDbArc
 50
268.95324080563091
 51
88.953147501369145
  0
LINE
  5
90
330
1F
100
AcDbEntity
  8
0
 62
7
100
AcDbLine
 10
358.84727661542979
 20
48.92048494137407
 30
0
 11
355.84777730229121
 21
48.975292518072131
 31
0
  0
ARC
  5
91
330
1F
100
AcDbEntity
  8
0
 62
7
100
AcDbCircle
 10
473.02714847337779
 20
36.192356852710844
 30
0
 40
14
100
AcDbArc
 50
175
 51
265.00000000000023
  0
LINE
  5
92
330
1F
100
AcDbEntity
  8
0
 62
7
100
AcDbLine
 10
471.80696807491063
 20
22.24563107942642
 30
0
 11
565.94736704458046
 21
14.00941338977181
 31
0
  0
ARC
  5
93
330
1F
100
AcDbEntity
  8
0
 62
7
100
AcDbCircle
 10
567.16754744304762
 20
27.956139163056232
 30
0
 40
14
100
AcDbArc
 50
265.00000000000023
 51
355
  0
LINE
  5
94
330
1F
100
AcDbEntity
  8
0
 62
7
100
AcDbLine
 10
581.11427321633209
 20
26.735958764589018
 30
0
 11
584.07756846975349
 21
60.606578499708291
 31
0
  0
ARC
  5
95
330
1F
100
AcDbEntity
  8
0
 62
7
100
AcDbCircle
 10
582.08517907357
 20
60.780889985203615
 30
0
 40
2
100
AcDbArc
 50
354.99999999999983
 51
84.999999999996945
  0
LINE
  5
96
330
1F
100
AcDbEntity
  8
0
 62
7
100
AcDbLine
 10
582.2594905590654
 20
62.7732793813871
 30
0
 11
578.27471176669735
 21
63.121902352377823
 31
0
  0
ARC
  5
97
330
1F
100
AcDbEntity
  8
0
 62
7
100
AcDbCircle
 10
578.10040028120306
 20
61.129512956194247
 30
0
 40
2
100
AcDbArc
 50
85.00000000002963
 51
175.00000000000026
  0
LINE
  5
98
330
1F
100
AcDbEntity
  8
0
 62
7
100
AcDbLine
 10
576.10801088501955
 20
61.303824441689557
 30
0
 11
573.14471563159816
 21
27.433204706570283
 31
0
  0
ARC
  5
99
330
1F
100
AcDbEntity
  8
0
 62
7
100
AcDbCircle
 10
567.16754744304762
 20
27.956139163056232
 30
0
 40
6
100
AcDbArc
 50
265.00000000000023
 51
355.00000000000006
  0
LINE
  5
9A
330
1F
100
AcDbEntity
  8
0
 62
7
100
AcDbLine
 10
566.6446129865617
 20
21.978970974505756
 30
0
 11
472.50421401689186
 21
30.215188664160369
 31
0
  0
ARC
  5
9B
330
1F
100
AcDbEntity
  8
0
 62
7
100
AcDbCircle
 10
473.02714847337779
 20
36.192356852710844
 30
0
 40
6
100
AcDbArc
 50
174.99999999999994
 51
265.00000000000023
  0
LINE
  5
9C
330
1F
100
AcDbEntity
  8
0
 62
7
100
AcDbLine
 10
467.04998028482737
 20
36.715291309196793
 30
0
 11
476.35447280124049
 21
143.06612742243695
 31
0
  0
ARC
  5
9D
330
1F
100
AcDbEntity
  8
0
 62
7
100
AcDbCircle
 10
462.407747027956
 20
144.28630782090417
 30
0
 40
14
100
AcDbArc
 50
355
 51
84.999999999999986
  0
LINE
  5
9E
330
1F
100
AcDbEntity
  8
0
 62
7
100
AcDbLine
 10
463.62792742642324
 20
158.23303359418861
 30
0
 11
427.76491829511792
 21
161.37064033307641
 31
0
  0
LINE
  5
9F
330
1F
100
AcDbEntity
  8
0
 62
7
100
AcDbLine
 10
427.76491829511792
 20
161.37064033307641
 30
0
 11
427.63418468099644
 21
159.87634828593878
 31
0
  0
LINE
  5
A0
330
1F
100
AcDbEntity
  8
0
 62
7
100
AcDbLine
 10
427.63418468099644
 20
159.87634828593878
 30
0
 11
432.11706082241119
 21
159.48414744357416
 31
0
  0
ARC
  5
A1
330
1F
100
AcDbEntity
  8
0
 62
7
100
AcDbCircle
 10
431.899169917727
 20
156.99366083376205
 30
0
 40
2.50000000000003
100
AcDbArc
 50
265.00003560881004
 51
84.999964391188456
  0
LINE
  5
A2
330
1F
100
AcDbEntity
  8
0
 62
7
100
AcDbLine
 10
431.68128210867292
 20
154.5031739531164
 30
0
 11
427.19840596725817
 21
154.89537479548105
 31
0
  0
LINE
  5
A3
330
1F
100
AcDbEntity
  8
0
 62
7
100
AcDbLine
 10
427.19840596725817
 20
154.89537479548105
 30
0
 11
427.06767235313669
 21
153.40108274834341
 31
0
  0
LINE
  5
A4
330
1F
100
AcDbEntity
  8
0
 62
7
100
AcDbLine
 10
427.06767235313669
 20
153.40108274834341
 30
0
 11
462.93068148444195
 21
150.26347600945462
 31
0
  0
ARC
  5
A5
330
1F
100
AcDbEntity
  8
0
 62
7
100
AcDbCircle
 10
462.407747027956
 20
144.28630782090417
 30
0
 40
6.00000000000003
100
AcDbArc
 50
354.99999999999994
 51
85.000000000000185
  0
LINE
  5
A6
330
1F
100
AcDbEntity
  8
0
 62
7
100
AcDbLine
 10
468.3849152165065
 20
143.76337336441821
 30
0
 11
459.08042270009338
 21
37.412537251178058
 31
0
  0
LINE
  5
A7
330
1F
100
AcDbEntity
  8
0
 62
7
100
AcDbLine
 10
582.47128357242718
 20
53.720371355813825
 30
0
 11
582.64559505792238
 21
55.712760751996406
 31
0
  0
ARC
  5
A8
330
1F
100
AcDbEntity
  8
0
 62
7
100
AcDbCircle
 10
579.65701096364717
 20
55.974227980240087
 30
0
 40
3
100
AcDbArc
 50
354.99999999998653
 51
174.99999999998849
  0
LINE
  5
A9
330
1F
100
AcDbEntity
  8
0
 62
7
100
AcDbLine
 10
576.66842686937207
 20
56.235695208483655
 30
0
 11
576.49411538387665
 21
54.243305812299766
 31
0
  0
ARC
  5
AA
330
1F
100
AcDbEntity
  8
0
 62
7
100
AcDbCircle
 10
579.48269947815186
 20
53.981838584056796
 30
0
 40
3
100
AcDbArc
 50
175.00000000000003
 51
355.00000000000023
  0
ARC
  5
AB
330
1F
100
AcDbEntity
  8
0
 62
7
100
AcDbCircle
 10
219.9914630384319
 20
75.96244454984506
 30
0
 40
5
100
AcDbArc
 50
179.00000001799984
 51
269.00000001799981
  0
LINE
  5
AC
330
1F
100
AcDbEntity
  8
0
 62
7
100
AcDbLine
 10
214.99222456262254
 20
76.049706580460935
 30
0
 11
216.1114218783224
 21
140.16847900852676
 31
0
  0
ARC
  5
AD
330
1F
100
AcDbEntity
  8
0
 62
7
100
AcDbCircle
 10
221.11066035413177
 20
140.08121697791179
 30
0
 40
5
100
AcDbArc
 50
89.000000017999838
 51
179.00000001801024
  0
LINE
  5
AE
330
1F
100
AcDbEntity
  8
0
 62
7
100
AcDbLine
 10
221.19792238474764
 20
145.08045545372116
 30
0
 11
290.68733719849786
 21
143.8675132281607
 31
0
  0
ARC
  5
AF
330
1F
100
AcDbEntity
  8
0
 62
7
100
AcDbCircle
 10
290.7222420107442
 20
145.86720861848445
 30
0
 40
2
100
AcDbArc
 50
269.00000001800015
 51
359.00000001800015
  0
LINE
  5
B0
330
1F
100
AcDbEntity
  8
0
 62
7
100
AcDbLine
 10
292.721937401068
 20
145.83230380623812
 30
0
 11
292.826651837807
 21
151.83138997720934
 31
0
  0
ARC
  5
B1
330
1F
100
AcDbEntity
  8
0
 62
7
100
AcDbCircle
 10
290.82695644748327
 20
151.86629478945568
 30
0
 40
2
100
AcDbArc
 50
359.00000001800015
 51
89.000000018000179
  0
LINE
  5
B2
330
1F
100
AcDbEntity
  8
0
 62
7
100
AcDbLine
 10
290.86186125972961
 20
153.86599017977946
 30
0
 11
221.37244644597934
 21
155.07893240533903
 31
0
  0
ARC
  5
B3
330
1F
100
AcDbEntity
  8
0
 62
7
100
AcDbCircle
 10
221.11066035413063
 20
140.08121697791094
 30
0
 40
15
100
AcDbArc
 50
89.0000000179957
 51
179.00000001800004
  0
LINE
  5
B4
330
1F
100
AcDbEntity
  8
0
 62
7
100
AcDbLine
 10
206.11294492670254
 20
140.34300306975851
 30
0
 11
204.99374761100376
 21
76.224230641692657
 31
0
  0
ARC
  5
B5
330
1F
100
AcDbEntity
  8
0
 62
7
100
AcDbCircle
 10
219.9914630384319
 20
75.96244454984506
 30
0
 40
15
100
AcDbArc
 50
179.00000001799995
 51
269.00000001799981
  0
LINE
  5
B6
330
1F
100
AcDbEntity
  8
0
 62
7
100
AcDbLine
 10
219.72967694658428
 20
60.964729122416948
 30
0
 11
359.18011560120181
 21
58.530612705255137
 31
0
  0
ARC
  5
B7
330
1F
100
AcDbEntity
  8
0
 62
7
100
AcDbCircle
 10
359.21502041344809
 20
60.530308095578889
 30
0
 40
2
100
AcDbArc
 50
269.0000000180018
 51
359.00000001799975
  0
LINE
  5
B8
330
1F
100
AcDbEntity
  8
0
 62
7
100
AcDbLine
 10
361.21471580377181
 20
60.495403283332536
 30
0
 11
361.31943024051088
 21
66.4944894543047
 31
0
  0
ARC
  5
B9
330
1F
100
AcDbEntity
  8
0
 62
7
100
AcDbCircle
 10
359.31973485018716
 20
66.529394266551009
 30
0
 40
2.00000000000003
100
AcDbArc
 50
359.000000018001
 51
89.000000017998559
  0
LINE
  5
BA
330
1F
100
AcDbEntity
  8
0
 62
7
100
AcDbLine
 10
359.35463966243356
 20
68.529089656874788
 30
0
 11
219.90420100781603
 21
70.9632060740357
 31
0
  0
LINE
  5
BB
330
1F
100
AcDbEntity
  8
0
 62
7
100
AcDbLine
 10
353.71585809945839
 20
60.626296329092241
 30
0
 11
355.71555348978416
 21
60.59139151684586
 31
0
  0
ARC
  5
BC
330
1F
100
AcDbEntity
  8
0
 62
7
100
AcDbCircle
 10
355.76791070815364
 20
63.590934602331487
 30
0
 40
3
100
AcDbArc
 50
269.00000001800066
 51
89.000000017999625
  0
LINE
  5
BD
330
1F
100
AcDbEntity
  8
0
 62
7
100
AcDbLine
 10
355.82026792652317
 20
66.590477687817113
 30
0
 11
353.82057253619939
 21
66.625382500064362
 31
0
  0
ARC
  5
BE
330
1F
100
AcDbEntity
  8
0
 62
7
100
AcDbCircle
 10
353.76821531782889
 20
63.6258394145783
 30
0
 40
3.00000000000045
100
AcDbArc
 50
89.000000017981321
 51
269.00000001798128
  0
LINE
  5
BF
330
1F
100
AcDbEntity
  8
0
 62
7
100
AcDbLine
 10
286.82756566683167
 20
151.93610441394964
 30
0
 11
284.82787027651085
 21
151.97100922619293
 31
0
  0
ARC
  5
C0
330
1F
100
AcDbEntity
  8
0
 62
7
100
AcDbCircle
 10
284.77551305814541
 20
148.97146614070465
 30
0
 40
3.00000000000261
100
AcDbArc
 50
89.000000018078666
 51
269.00000001807649
  0
LINE
  5
C1
330
1F
100
AcDbEntity
  8
0
 62
7
100
AcDbLine
 10
284.72315583977985
 20
145.97192305521637
 30
0
 11
286.72285123010062
 21
145.93701824297827
 31
0
  0
ARC
  5
C2
330
1F
100
AcDbEntity
  8
0
 62
7
100
AcDbCircle
 10
286.77520690529764
 20
148.93656135540004
 30
0
 40
3.0000000000004
100
AcDbArc
 50
269.00002949491318
 51
88.999970541239165
  0
ARC
  5
C3
330
1F
100
AcDbEntity
  8
0
 62
7
100
AcDbCircle
 10
445.61581501455771
 20
130.1962045859336
 30
0
 40
14
100
AcDbArc
 50
354.9999999999
 51
84.999999999900268
  0
LINE
  5
C4
330
1F
100
AcDbEntity
  8
0
 62
7
100
AcDbLine
 10
446.8359954130492
 20
144.14293035921591
 30
0
 11
352.69559644339375
 21
152.37914804903485
 31
0
  0
ARC
  5
C5
330
1F
100
AcDbEntity
  8
0
 62
7
100
AcDbCircle
 10
351.4754160449022
 20
138.43242227575254
 30
0
 40
14
100
AcDbArc
 50
84.999999999900041
 51
174.9999999998999
  0
LINE
  5
C6
330
1F
100
AcDbEntity
  8
0
 62
7
100
AcDbLine
 10
337.52869027161989
 20
139.65260267424412
 30
0
 11
334.56539501813938
 21
105.78198293912999
 31
0
  0
ARC
  5
C7
330
1F
100
AcDbEntity
  8
0
 62
7
100
AcDbCircle
 10
336.55778441432255
 20
105.6076714536312
 30
0
 40
2
100
AcDbArc
 50
174.99999999990007
 51
264.99999999989882
  0
LINE
  5
C8
330
1F
100
AcDbEntity
  8
0
 62
7
100
AcDbLine
 10
336.38347292882372
 20
103.61528205744801
 30
0
 11
340.3682517211912
 21
103.26665908645033
 31
0
  0
ARC
  5
C9
330
1F
100
AcDbEntity
  8
0
 62
7
100
AcDbCircle
 10
340.5425632066889
 20
105.25904848263362
 30
0
 40
2
100
AcDbArc
 50
264.99999999993156
 51
354.99999999989973
  0
LINE
  5
CA
330
1F
100
AcDbEntity
  8
0
 62
7
100
AcDbLine
 10
342.53495260287212
 20
105.08473699713481
 30
0
 11
345.49824785635269
 21
138.95535673224893
 31
0
  0
ARC
  5
CB
330
1F
100
AcDbEntity
  8
0
 62
7
100
AcDbCircle
 10
351.4754160449022
 20
138.43242227575254
 30
0
 40
6
100
AcDbArc
 50
84.999999999899956
 51
174.9999999998999
  0
LINE
  5
CC
330
1F
100
AcDbEntity
  8
0
 62
7
100
AcDbLine
 10
351.99835050139859
 20
144.40959046430211
 30
0
 11
446.1387494710541
 21
136.17337277448317
 31
0
  0
ARC
  5
CD
330
1F
100
AcDbEntity
  8
0
 62
7
100
AcDbCircle
 10
445.61581501455771
 20
130.1962045859336
 30
0
 40
6
100
AcDbArc
 50
354.9999999998999
 51
84.999999999899956
  0
LINE
  5
CE
330
1F
100
AcDbEntity
  8
0
 62
7
100
AcDbLine
 10
451.59298320310722
 20
129.67327012943721
 30
0
 11
442.28849068650857
 21
23.322434016213318
 31
0
  0
ARC
  5
CF
330
1F
100
AcDbEntity
  8
0
 62
7
100
AcDbCircle
 10
456.23521645979088
 20
22.10225361772175
 30
0
 40
14
100
AcDbArc
 50
174.99999999989996
 51
264.99999999989979
  0
LINE
  5
D0
330
1F
100
AcDbEntity
  8
0
 62
7
100
AcDbLine
 10
455.01503606129927
 20
8.1555278444394421
 30
0
 11
490.87804519259913
 21
5.0179211054890436
 31
0
  0
LINE
  5
D1
330
1F
100
AcDbEntity
  8
0
 62
7
100
AcDbLine
 10
490.87804519259913
 20
5.0179211054890436
 30
0
 11
491.00877880672317
 21
6.512213152626436
 31
0
  0
LINE
  5
D2
330
1F
100
AcDbEntity
  8
0
 62
7
100
AcDbLine
 10
491.00877880672317
 20
6.512213152626436
 30
0
 11
486.52590266530916
 21
6.9044139949988965
 31
0
  0
ARC
  5
D3
330
1F
100
AcDbEntity
  8
0
 62
7
100
AcDbCircle
 10
486.74379356999765
 20
9.3949006048105943
 30
0
 40
2.50000000000003
100
AcDbArc
 50
85.000035608711954
 51
264.999964391089
  0
LINE
  5
D4
330
1F
100
AcDbEntity
  8
0
 62
7
100
AcDbLine
 10
486.961681379056
 20
11.885387485455873
 30
0
 11
491.44455752047008
 21
11.49318664308341
 31
0
  0
LINE
  5
D5
330
1F
100
AcDbEntity
  8
0
 62
7
100
AcDbLine
 10
491.44455752047008
 20
11.49318664308341
 30
0
 11
491.57529113459418
 21
12.987478690220788
 31
0
  0
LINE
  5
D6
330
1F
100
AcDbEntity
  8
0
 62
7
100
AcDbLine
 10
491.57529113459418
 20
12.987478690220788
 30
0
 11
455.71228200329449
 21
16.125085429172195
 31
0
  0
ARC
  5
D7
330
1F
100
AcDbEntity
  8
0
 62
7
100
AcDbCircle
 10
456.23521645979088
 20
22.10225361772175
 30
0
 40
6.00000000000003
100
AcDbArc
 50
174.9999999999
 51
264.99999999989996
  0
LINE
  5
D8
330
1F
100
AcDbEntity
  8
0
 62
7
100
AcDbLine
 10
450.25804827124125
 20
22.625188074218137
 30
0
 11
459.56254078784
 21
128.97602418744205
 31
0
  0
LINE
  5
D9
330
1F
100
AcDbEntity
  8
0
 62
7
100
AcDbLine
 10
336.17167991547774
 20
112.66819008302166
 30
0
 11
335.997368429979
 21
110.67580068683938
 31
0
  0
ARC
  5
DA
330
1F
100
AcDbEntity
  8
0
 62
7
100
AcDbCircle
 10
338.98595252425378
 20
110.41433345859049
 30
0
 40
3
100
AcDbArc
 50
174.99999999988668
 51
354.99999999988853
  0
LINE
  5
DB
330
1F
100
AcDbEntity
  8
0
 62
7
100
AcDbLine
 10
341.97453661852853
 20
110.1528662303417
 30
0
 11
342.14884810402737
 21
112.14525562652527
 31
0
  0
ARC
  5
DC
330
1F
100
AcDbEntity
  8
0
 62
7
100
AcDbCircle
 10
339.1602640097525
 20
112.40672285477346
 30
0
 40
3
100
AcDbArc
 50
354.99999999990013
 51
174.9999999998999
  0
LINE
  5
DD
330
1F
100
AcDbEntity
  8
0
 62
7
100
AcDbLine
 10
348.759757206971
 20
25.57916000625687
 30
0
 11
348.8375305888535
 21
31.578655926841257
 31
0
  0
ARC
  5
DE
330
1F
100
AcDbEntity
  8
0
 62
7
100
AcDbCircle
 10
346.83769861532642
 20
31.604580387467575
 30
0
 40
2.00000000000003
100
AcDbArc
 50
359.25729811093316
 51
89.257298110899484
  0
LINE
  5
DF
330
1F
100
AcDbEntity
  8
0
 62
7
100
AcDbLine
 10
346.86362307595391
 20
33.604412360994672
 30
0
 11
181.56783653467465
 21
35.747194438060845
 31
0
  0
ARC
  5
E0
330
1F
100
AcDbEntity
  8
0
 62
7
100
AcDbCircle
 10
181.64560991656202
 20
41.7466903586415
 30
0
 40
5.99999999999951
100
AcDbArc
 50
236.90985461139991
 51
269.25729811085273
  0
LINE
  5
E1
330
1F
100
AcDbEntity
  8
0
 62
7
100
AcDbLine
 10
178.3698627016085
 20
36.719814571065228
 30
0
 11
126.61237403205081
 21
70.447413287732417
 31
0
  0
ARC
  5
E2
330
1F
100
AcDbEntity
  8
0
 62
7
100
AcDbCircle
 10
129.88812124699842
 20
75.474289075312811
 30
0
 40
6.00000000000008
100
AcDbArc
 50
179.25729811089244
 51
236.90985461146866
  0
LINE
  5
E3
330
1F
100
AcDbEntity
  8
0
 62
7
100
AcDbLine
 10
123.88862532641718
 20
75.55206245719603
 30
0
 11
124.83380275031612
 21
148.46374459918877
 31
0
  0
ARC
  5
E4
330
1F
100
AcDbEntity
  8
0
 62
7
100
AcDbCircle
 10
122.83397077678904
 20
148.48966905981425
 30
0
 40
2.00000000000003
100
AcDbArc
 50
359.25729811095727
 51
89.2572981109011
  0
LINE
  5
E5
330
1F
100
AcDbEntity
  8
0
 62
7
100
AcDbLine
 10
122.85989523741648
 20
150.48950103334133
 30
0
 11
116.86039931683632
 21
150.56727441522574
 31
0
  0
ARC
  5
E6
330
1F
100
AcDbEntity
  8
0
 62
7
100
AcDbCircle
 10
116.83447485620883
 20
148.56744244169866
 30
0
 40
2.00000000000003
100
AcDbArc
 50
89.25729811089947
 51
179.25729811090028
  0
LINE
  5
E7
330
1F
100
AcDbEntity
  8
0
 62
7
100
AcDbLine
 10
114.83464288268175
 20
148.59336690232612
 30
0
 11
113.88946545878082
 21
75.681684760333411
 31
0
  0
ARC
  5
E8
330
1F
100
AcDbEntity
  8
0
 62
7
100
AcDbCircle
 10
129.8881212469974
 20
75.47428907531372
 30
0
 40
15.9999999999999
100
AcDbArc
 50
179.25729811090039
 51
236.90985461145192
  0
LINE
  5
E9
330
1F
100
AcDbEntity
  8
0
 62
7
100
AcDbLine
 10
121.15279534046635
 20
62.069286975101669
 30
0
 11
172.910284010027
 21
28.341688258430288
 31
0
  0
ARC
  5
EA
330
1F
100
AcDbEntity
  8
0
 62
7
100
AcDbCircle
 10
181.64560991655907
 20
41.746690358641644
 30
0
 40
16.0000000000001
100
AcDbArc
 50
236.90985461144749
 51
269.25729811089275
  0
LINE
  5
EB
330
1F
100
AcDbEntity
  8
0
 62
7
100
AcDbLine
 10
181.43821423153724
 20
25.748034570425034
 30
0
 11
346.73400077281656
 21
23.605252493359323
 31
0
  0
ARC
  5
EC
330
1F
100
AcDbEntity
  8
0
 62
7
100
AcDbCircle
 10
346.75992523344394
 20
25.605084466886417
 30
0
 40
2.00000000000003
100
AcDbArc
 50
269.25729811090275
 51
359.25729811084062
  0
LINE
  5
ED
330
1F
100
AcDbEntity
  8
0
 62
7
100
AcDbLine
 10
116.79558816526065
 20
145.56769448141117
 30
0
 11
116.75670147431941
 21
142.56794652111952
 31
0
  0
ARC
  5
EE
330
1F
100
AcDbEntity
  8
0
 62
7
100
AcDbCircle
 10
119.75644943461106
 20
142.52905983017831
 30
0
 40
3.00000000000057
100
AcDbArc
 50
179.25729811090028
 51
359.2572981109
  0
LINE
  5
EF
330
1F
100
AcDbEntity
  8
0
 62
7
100
AcDbLine
 10
122.75619739490168
 20
142.4901731392371
 30
0
 11
122.79508408584189
 21
145.48992109952874
 31
0
  0
ARC
  5
F0
330
1F
100
AcDbEntity
  8
0
 62
7
100
AcDbCircle
 10
119.79533611488756
 20
145.52880696786505
 30
0
 40
3.00000000000011
100
AcDbArc
 50
359.25731382281646
 51
179.25728239898362
  0
ARC
  5
F1
330
1F
100
AcDbEntity
  8
0
 62
7
100
AcDbCircle
 10
338.29952662690062
 20
28.715011377195335
 30
0
 40
2.99999999999812
100
AcDbArc
 50
89.257309380137613
 51
269.25728684166262
  0
LINE
  5
F2
330
1F
100
AcDbEntity
  8
0
 62
7
100
AcDbLine
 10
338.26063934595311
 20
25.715263424554987
 30
0
 11
341.26038730624072
 21
25.676376733614042
 31
0
  0
ARC
  5
F3
330
1F
100
AcDbEntity
  8
0
 62
7
100
AcDbCircle
 10
341.29927155468727
 20
28.67612472556646
 30
0
 40
2.99999999999997
100
AcDbArc
 50
269.257344763031
 51
89.257251458768508
  0
LINE
  5
F4
330
1F
100
AcDbEntity
  8
0
 62
7
100
AcDbLine
 10
341.33816068812314
 20
31.675872654193206
 30
0
 11
338.33841272783548
 21
31.71475934513256
 31
0
  0
LINE
  5
F5
330
1F
100
AcDbEntity
  8
0
 62
7
100
AcDbLine
 10
402.60995394176882
 20
15.004263187442074
 30
0
 11
110.66205997141338
 21
18.731143145621932
 31
0
  0
ARC
  5
F6
330
1F
100
AcDbEntity
  8
0
 62
7
100
AcDbCircle
 10
110.72588259878472
 20
23.730735796252123
 30
0
 40
5
100
AcDbArc
 50
179.2686267011
 51
269.26862670109921
  0
LINE
  5
F7
330
1F
100
AcDbEntity
  8
0
 62
7
100
AcDbLine
 10
105.72628994815449
 20
23.794558423623393
 30
0
 11
106.80489235072895
 21
108.28767421927363
 31
0
  0
ARC
  5
F8
330
1F
100
AcDbEntity
  8
0
 62
7
100
AcDbCircle
 10
91.806114398838361
 20
108.47914210138734
 30
0
 40
15.0000000000001
100
AcDbArc
 50
359.26862670110035
 51
89.268626701100089
  0
LINE
  5
F9
330
1F
100
AcDbEntity
  8
0
 62
7
100
AcDbLine
 10
91.997582280952145
 20
123.47792005327801
 30
0
 11
21.503325907067392
 21
124.3778190992129
 31
0
  0
ARC
  5
FA
330
1F
100
AcDbEntity
  8
0
 62
7
100
AcDbCircle
 10
21.311858024953608
 20
109.37904114732243
 30
0
 40
15.0000000000001
100
AcDbArc
 50
89.268626701100075
 51
179.26862670110032
  0
LINE
  5
FB
330
1F
100
AcDbEntity
  8
0
 62
7
100
AcDbLine
 10
6.31308007306302
 20
109.57050902943615
 30
0
 11
5.0050776922544173
 21
7.1071765179698678
 31
0
  0
ARC
  5
FC
330
1F
100
AcDbEntity
  8
0
 62
7
100
AcDbCircle
 10
7.0049147525064654
 20
7.0816474670213605
 30
0
 40
2.00000000000003
100
AcDbArc
 50
179.2686267011
 51
269.26862670109921
  0
LINE
  5
FD
330
1F
100
AcDbEntity
  8
0
 62
7
100
AcDbLine
 10
6.9793857015579306
 20
5.081810406769284
 30
0
 11
12.978896882313165
 21
5.0052232539237735
 31
0
  0
ARC
  5
FE
330
1F
100
AcDbEntity
  8
0
 62
7
100
AcDbCircle
 10
13.004425933262723
 20
7.0050603141758367
 30
0
 40
2.00000000000003
100
AcDbArc
 50
269.26862670106988
 51
359.2686267011
  0
LINE
  5
FF
330
1F
100
AcDbEntity
  8
0
 62
7
100
AcDbLine
 10
15.004262993514772
 20
6.9795312632273294
 30
0
 11
16.312265374323374
 21
109.44286377469359
 31
0
  0
ARC
  5
100
330
1F
100
AcDbEntity
  8
0
 62
7
100
AcDbCircle
 10
21.311858024953608
 20
109.37904114732223
 30
0
 40
5.00000000000014
100
AcDbArc
 50
89.268626701100544
 51
179.26862670109892
  0
LINE
  5
101
330
1F
100
AcDbEntity
  8
0
 62
7
100
AcDbLine
 10
21.375680652324831
 20
114.37863379795252
 30
0
 11
91.869937026209584
 21
113.47873475201763
 31
0
  0
ARC
  5
102
330
1F
100
AcDbEntity
  8
0
 62
7
100
AcDbCircle
 10
91.806114398838361
 20
108.47914210138744
 30
0
 40
5
100
AcDbArc
 50
359.26862670110006
 51
89.268626701100516
  0
LINE
  5
103
330
1F
100
AcDbEntity
  8
0
 62
7
100
AcDbLine
 10
96.8057070494686
 20
108.41531947401617
 30
0
 11
95.727104646894134
 21
23.922203678365936
 31
0
  0
ARC
  5
104
330
1F
100
AcDbEntity
  8
0
 62
7
100
AcDbCircle
 10
110.72588259878472
 20
23.730735796251214
 30
0
 40
15
100
AcDbArc
 50
179.26862670109651
 51
269.26862670109966
  0
LINE
  5
105
330
1F
100
AcDbEntity
  8
0
 62
7
100
AcDbLine
 10
110.53441471667082
 20
8.731957844360652
 30
0
 11
402.48230868702626
 21
5.0050778861816907
 31
0
  0
ARC
  5
106
330
1F
100
AcDbEntity
  8
0
 62
7
100
AcDbCircle
 10
402.5078377379748
 20
7.0049149464337965
 30
0
 40
2.00000000000003
100
AcDbArc
 50
269.26862670109921
 51
359.26862670109921
  0
LINE
  5
107
330
1F
100
AcDbEntity
  8
0
 62
7
100
AcDbLine
 10
404.50767479822684
 20
6.9793858954852608
 30
0
 11
404.58426195107239
 21
12.978897076241489
 31
0
  0
ARC
  5
108
330
1F
100
AcDbEntity
  8
0
 62
7
100
AcDbCircle
 10
402.58442489082029
 20
13.004426127189969
 30
0
 40
2.00000000000003
100
AcDbArc
 50
359.2686267011008
 51
89.268626701099222
  0
LINE
  5
109
330
1F
100
AcDbEntity
  8
0
 62
7
100
AcDbLine
 10
394.50848949701447
 20
7.1070311502271863
 30
0
 11
396.50832655726651
 21
7.081502099278679
 31
0
  0
ARC
  5
10A
330
1F
100
AcDbEntity
  8
0
 62
7
100
AcDbCircle
 10
396.54662013371342
 20
10.081257689656487
 30
0
 40
3
100
AcDbArc
 50
269.26862670063883
 51
89.268626700639956
  0
LINE
  5
10B
330
1F
100
AcDbEntity
  8
0
 62
7
100
AcDbLine
 10
396.58491371016027
 20
13.081013280034295
 30
0
 11
394.58507664985996
 21
13.106542330983418
 31
0
  0
ARC
  5
10C
330
1F
100
AcDbEntity
  8
0
 62
7
100
AcDbCircle
 10
394.54678307343721
 20
10.106786740605303
 30
0
 40
3
100
AcDbArc
 50
89.2686267011003
 51
269.26862670110029
  0
LINE
  5
10D
330
1F
100
AcDbEntity
  8
0
 62
7
100
AcDbLine
 10
13.055484035130689
 20
11.004734434683515
 30
0
 11
13.081013086075131
 21
13.004571494930641
 31
0
  0
ARC
  5
10E
330
1F
100
AcDbEntity
  8
0
 62
7
100
AcDbCircle
 10
10.081257474000495
 20
13.042863371973949
 30
0
 40
3.0000000000031
100
AcDbArc
 50
359.26865915950191
 51
179.26859424275452
  0
LINE
  5
10F
330
1F
100
AcDbEntity
  8
0
 62
7
100
AcDbLine
 10
7.0815019053138712
 20
13.081158647773272
 30
0
 11
7.0559728543694291
 21
11.081321587525919
 31
0
  0
ARC
  5
110
330
1F
100
AcDbEntity
  8
0
 62
7
100
AcDbCircle
 10
10.055728413123688
 20
11.043025533588018
 30
0
 40
3.00000000000352
100
AcDbArc
 50
179.2685793801918
 51
359.268674022069
  0
ARC
  5
111
330
1F
100
AcDbEntity
  8
0
 62
7
100
AcDbCircle
 10
425.968955324392
 20
94.947841427029729
 30
0
 40
5
100
AcDbArc
 50
354.99999999989996
 51
84.999999999890349
  0
LINE
  5
112
330
1F
100
AcDbEntity
  8
0
 62
7
100
AcDbLine
 10
430.94992881484995
 20
94.512062713282745
 30
0
 11
425.79653703574303
 21
35.608525142643877
 31
0
  0
ARC
  5
113
330
1F
100
AcDbEntity
  8
0
 62
7
100
AcDbCircle
 10
420.81556354528493
 20
36.044303856389874
 30
0
 40
5
100
AcDbArc
 50
264.99999999990081
 51
354.99999999991138
  0
LINE
  5
114
330
1F
100
AcDbEntity
  8
0
 62
7
100
AcDbLine
 10
420.379784831538
 20
31.0633303659319
 30
0
 11
371.06814727600317
 21
35.377539632027123
 31
0
  0
ARC
  5
115
330
1F
100
AcDbEntity
  8
0
 62
7
100
AcDbCircle
 10
370.89383579050536
 20
33.385150235843867
 30
0
 40
2
100
AcDbArc
 50
84.999999999928235
 51
174.99999999990018
  0
LINE
  5
116
330
1F
100
AcDbEntity
  8
0
 62
7
100
AcDbLine
 10
368.90144639432214
 20
33.559461721342657
 30
0
 11
368.3785119378249
 21
27.582293532793187
 31
0
  0
ARC
  5
117
330
1F
100
AcDbEntity
  8
0
 62
7
100
AcDbCircle
 10
370.37090133400807
 20
27.407982047294382
 30
0
 40
2
100
AcDbArc
 50
174.99999999989964
 51
264.99999999989882
  0
LINE
  5
118
330
1F
100
AcDbEntity
  8
0
 62
7
100
AcDbLine
 10
370.19658984850923
 20
25.415592651111197
 30
0
 11
419.50822740404408
 21
21.10138338501697
 31
0
  0
ARC
  5
119
330
1F
100
AcDbEntity
  8
0
 62
7
100
AcDbCircle
 10
420.81556354528414
 20
36.04430385639094
 30
0
 40
15
100
AcDbArc
 50
264.99999999990342
 51
354.99999999989996
  0
LINE
  5
11A
330
1F
100
AcDbEntity
  8
0
 62
7
100
AcDbLine
 10
435.75848401665803
 20
34.73696771514998
 30
0
 11
440.91187579576683
 21
93.640505285788691
 31
0
  0
ARC
  5
11B
330
1F
100
AcDbEntity
  8
0
 62
7
100
AcDbCircle
 10
425.96895532439288
 20
94.947841427029644
 30
0
 40
15
100
AcDbArc
 50
354.9999999999
 51
84.999999999899956
  0
LINE
  5
11C
330
1F
100
AcDbEntity
  8
0
 62
7
100
AcDbLine
 10
427.27629146563385
 20
109.89076189840355
 30
0
 11
354.08419252665357
 21
116.29424081536085
 31
0
  0
ARC
  5
11D
330
1F
100
AcDbEntity
  8
0
 62
7
100
AcDbCircle
 10
353.90988104115479
 20
114.30185141917767
 30
0
 40
2
100
AcDbArc
 50
84.9999999999005
 51
174.99999999990007
  0
LINE
  5
11E
330
1F
100
AcDbEntity
  8
0
 62
7
100
AcDbLine
 10
351.91749164497162
 20
114.47616290467646
 30
0
 11
351.39455718847523
 21
108.4989947161269
 31
0
  0
ARC
  5
11F
330
1F
100
AcDbEntity
  8
0
 62
7
100
AcDbCircle
 10
353.3869465846584
 20
108.32468323062814
 30
0
 40
2.00000000000003
100
AcDbArc
 50
174.99999999990084
 51
264.99999999989893
  0
LINE
  5
120
330
1F
100
AcDbEntity
  8
0
 62
7
100
AcDbLine
 10
353.21263509915957
 20
106.33229383444493
 30
0
 11
426.40473403813985
 21
99.928814917487614
 31
0
  0
LINE
  5
121
330
1F
100
AcDbEntity
  8
0
 62
7
100
AcDbLine
 10
359.38895187129242
 20
113.82249483487541
 30
0
 11
357.39656247510925
 21
113.9968063203742
 31
0
  0
ARC
  5
122
330
1F
100
AcDbEntity
  8
0
 62
7
100
AcDbCircle
 10
357.135095246861
 20
111.00822222609887
 30
0
 40
3.00000000000057
100
AcDbArc
 50
84.9999999998998
 51
264.99999999989979
  0
LINE
  5
123
330
1F
100
AcDbEntity
  8
0
 62
7
100
AcDbLine
 10
356.87362801861275
 20
108.01963813182351
 30
0
 11
358.86601741479603
 21
107.84532664632586
 31
0
  0
ARC
  5
124
330
1F
100
AcDbEntity
  8
0
 62
7
100
AcDbCircle
 10
359.12748464304423
 20
110.83391074060064
 30
0
 40
3
100
AcDbArc
 50
264.99999999989996
 51
84.999999999899927
  0
LINE
  5
125
330
1F
100
AcDbEntity
  8
0
 62
7
100
AcDbLine
 10
374.35568012637623
 20
27.059359076296644
 30
0
 11
376.34806952255769
 21
26.885047590799005
 31
0
  0
ARC
  5
126
330
1F
100
AcDbEntity
  8
0
 62
7
100
AcDbCircle
 10
376.60953732802091
 20
29.873631634576924
 30
0
 40
3.00000000000301
100
AcDbArc
 50
264.99998893380013
 51
85.000011066142591
  0
LINE
  5
127
330
1F
100
AcDbEntity
  8
0
 62
7
100
AcDbLine
 10
376.87100397904715
 20
32.862215779355083
 30
0
 11
374.87861458287114
 21
33.036527264850235
 31
0
  0
ARC
  5
128
330
1F
100
AcDbEntity
  8
0
 62
7
100
AcDbCircle
 10
374.61714438810816
 20
30.047943430109967
 30
0
 40
3.00000000000341
100
AcDbArc
 50
84.999943127226388
 51
265.00005687260835
  0
ARC
  5
129
330
1F
100
AcDbEntity
  8
0
 62
7
100
AcDbCircle
 10
68.710292941768785
 20
13.000000187442101
 30
0
 40
2
100
AcDbArc
 50
0
 51
90
  0
LINE
  5
12A
330
1F
100
AcDbEntity
  8
0
 62
7
100
AcDbLine
 10
68.710292941768785
 20
15.000000187442101
 30
0
 11
43.710292941768785
 21
15.000000187450063
 31
0
  0
ARC
  5
12B
330
1F
100
AcDbEntity
  8
0
 62
7
100
AcDbCircle
 10
43.710292941768785
 20
20.000000187450059
 30
0
 40
5
100
AcDbArc
 50
179.99999999999997
 51
270
  0
LINE
  5
12C
330
1F
100
AcDbEntity
  8
0
 62
7
100
AcDbLine
 10
38.710292941768785
 20
20.000000187450063
 30
0
 11
38.710292941768785
 21
101.1285397023471
 31
0
  0
ARC
  5
12D
330
1F
100
AcDbEntity
  8
0
 62
7
100
AcDbCircle
 10
36.710292941768785
 20
101.1285397023462
 30
0
 40
2
100
AcDbArc
 50
2.56479929513218E-11
 51
90
  0
LINE
  5
12E
330
1F
100
AcDbEntity
  8
0
 62
7
100
AcDbLine
 10
36.710292941768785
 20
103.1285397023462
 30
0
 11
30.710292941768785
 21
103.1285397023471
 31
0
  0
ARC
  5
12F
330
1F
100
AcDbEntity
  8
0
 62
7
100
AcDbCircle
 10
30.710292941768785
 20
101.1285397023471
 30
0
 40
2
100
AcDbArc
 50
90
 51
180
  0
LINE
  5
130
330
1F
100
AcDbEntity
  8
0
 62
7
100
AcDbLine
 10
28.710292941768785
 20
101.1285397023471
 30
0
 11
28.710292941768785
 21
20.000000187450066
 31
0
  0
ARC
  5
131
330
1F
100
AcDbEntity
  8
0
 62
7
100
AcDbCircle
 10
43.7102929417689
 20
20.000000187450144
 30
0
 40
15.0000000000001
100
AcDbArc
 50
180.00000000000028
 51
269.9999999999996
  0
LINE
  5
132
330
1F
100
AcDbEntity
  8
0
 62
7
100
AcDbLine
 10
43.710292941768785
 20
5.0000001874500626
 30
0
 11
68.710292941768785
 21
5.000000187442101
 31
0
  0
ARC
  5
133
330
1F
100
AcDbEntity
  8
0
 62
7
100
AcDbCircle
 10
68.710292941768785
 20
7.0000001874421294
 30
0
 40
2.00000000000003
100
AcDbArc
 50
270
 51
359.9999999999992
  0
LINE
  5
134
330
1F
100
AcDbEntity
  8
0
 62
7
100
AcDbLine
 10
70.710292941768785
 20
7.000000187442101
 30
0
 11
70.710292941768785
 21
13.000000187442101
 31
0
  0
LINE
  5
135
330
1F
100
AcDbEntity
  8
0
 62
7
100
AcDbLine
 10
64.710292941773787
 20
13.000000187445057
 30
0
 11
62.710292941776743
 21
13.000000187448013
 31
0
  0
ARC
  5
136
330
1F
100
AcDbEntity
  8
0
 62
7
100
AcDbCircle
 10
62.710291142246774
 20
10.000000187445625
 30
0
 40
3.00000000000293
100
AcDbArc
 50
89.999965631509241
 51
270.00003436839086
  0
LINE
  5
137
330
1F
100
AcDbEntity
  8
0
 62
7
100
AcDbLine
 10
62.710292941771513
 20
7.0000001874432387
 30
0
 11
64.710292941766738
 21
7.000000187442101
 31
0
  0
ARC
  5
138
330
1F
100
AcDbEntity
  8
0
 62
7
100
AcDbCircle
 10
64.710289935721789
 20
10.000000187443579
 30
0
 40
3.00000000000298
100
AcDbArc
 50
270.00005741122953
 51
89.999942588635847
  0
ARC
  5
139
330
1F
100
AcDbEntity
  8
0
 62
7
100
AcDbCircle
 10
33.710292941768785
 20
93.1285402817696
 30
0
 40
3.00000000000006
100
AcDbArc
 50
180.00001106617179
 51
359.99998893382821
  0
LINE
  5
13A
330
1F
100
AcDbEntity
  8
0
 62
7
100
AcDbLine
 10
36.710292941768785
 20
93.1285397023462
 30
0
 11
36.710292941768785
 21
96.1285397023462
 31
0
  0
ARC
  5
13B
330
1F
100
AcDbEntity
  8
0
 62
7
100
AcDbCircle
 10
33.710292941768785
 20
96.1285391229228
 30
0
 40
3.00000000000006
100
AcDbArc
 50
1.1066171788974997E-05
 51
179.99998893382821
  0
LINE
  5
13C
330
1F
100
AcDbEntity
  8
0
 62
7
100
AcDbLine
 10
30.710292941768785
 20
96.1285397023462
 30
0
 11
30.710292941768785
 21
93.1285397023462
 31
0
  0
ARC
  5
13D
330
1F
100
AcDbEntity
  8
0
 62
7
100
AcDbCircle
 10
48.210292941768785
 20
95.128540187438588
 30
0
 40
2
100
AcDbArc
 50
179.99999999989984
 51
269.99999999989905
  0
LINE
  5
13E
330
1F
100
AcDbEntity
  8
0
 62
7
100
AcDbLine
 10
48.21029294176526
 20
93.128540187438588
 30
0
 11
73.21029294176526
 21
93.128540187387
 31
0
  0
ARC
  5
13F
330
1F
100
AcDbEntity
  8
0
 62
7
100
AcDbCircle
 10
73.21029294175662
 20
88.128540187387
 30
0
 40
5
100
AcDbArc
 50
359.9999999999
 51
89.999999999901
  0
LINE
  5
140
330
1F
100
AcDbEntity
  8
0
 62
7
100
AcDbLine
 10
78.21029294175662
 20
88.128540187378277
 30
0
 11
78.210292941615023
 21
7.0000006724812378
 31
0
  0
ARC
  5
141
330
1F
100
AcDbEntity
  8
0
 62
7
100
AcDbCircle
 10
80.210292941615023
 20
7.0000006724786372
 30
0
 40
2
100
AcDbArc
 50
179.99999999992551
 51
269.99999999989905
  0
LINE
  5
142
330
1F
100
AcDbEntity
  8
0
 62
7
100
AcDbLine
 10
80.2102929416115
 20
5.0000006724786372
 30
0
 11
86.2102929416115
 21
5.0000006724672685
 31
0
  0
ARC
  5
143
330
1F
100
AcDbEntity
  8
0
 62
7
100
AcDbCircle
 10
86.210292941615023
 20
7.0000006724672685
 30
0
 40
2
100
AcDbArc
 50
269.99999999989905
 51
359.99999999989984
  0
LINE
  5
144
330
1F
100
AcDbEntity
  8
0
 62
7
100
AcDbLine
 10
88.210292941615023
 20
7.0000006724637727
 30
0
 11
88.21029294175662
 21
88.128540187360812
 31
0
  0
ARC
  5
145
330
1F
100
AcDbEntity
  8
0
 62
7
100
AcDbCircle
 10
73.2102929417565
 20
88.128540187386918
 30
0
 40
15.0000000000001
100
AcDbArc
 50
359.9999999999003
 51
89.999999999899686
  0
LINE
  5
146
330
1F
100
AcDbEntity
  8
0
 62
7
100
AcDbLine
 10
73.210292941782768
 20
103.128540187387
 30
0
 11
48.210292941782768
 21
103.12854018743859
 31
0
  0
ARC
  5
147
330
1F
100
AcDbEntity
  8
0
 62
7
100
AcDbCircle
 10
48.210292941779244
 20
101.12854018743856
 30
0
 40
2.00000000000003
100
AcDbArc
 50
89.999999999899032
 51
179.99999999989905
  0
LINE
  5
148
330
1F
100
AcDbEntity
  8
0
 62
7
100
AcDbLine
 10
46.210292941779244
 20
101.12854018744208
 30
0
 11
46.210292941768785
 21
95.128540187442084
 31
0
  0
LINE
  5
149
330
1F
100
AcDbEntity
  8
0
 62
7
100
AcDbLine
 10
52.210292941763782
 20
95.128540187428655
 30
0
 11
54.210292941760827
 21
95.1285401874222
 31
0
  0
ARC
  5
14A
330
1F
100
AcDbEntity
  8
0
 62
7
100
AcDbCircle
 10
54.210294741296025
 20
98.128540187424591
 30
0
 40
3.00000000000293
100
AcDbArc
 50
269.99996563140934
 51
90.000034368291011
  0
LINE
  5
14B
330
1F
100
AcDbEntity
  8
0
 62
7
100
AcDbLine
 10
54.210292941776515
 20
101.12854018742698
 30
0
 11
52.21029294178129
 21
101.12854018743161
 31
0
  0
ARC
  5
14C
330
1F
100
AcDbEntity
  8
0
 62
7
100
AcDbCircle
 10
52.21029594782101
 20
98.128540187430133
 30
0
 40
3.00000000000298
100
AcDbArc
 50
90.00005741112966
 51
269.999942588536
  0
ARC
  5
14D
330
1F
100
AcDbEntity
  8
0
 62
7
100
AcDbCircle
 10
83.210292941629
 20
15.000000093049993
 30
0
 40
3.00000000000006
100
AcDbArc
 50
1.106607191107652E-05
 51
179.99998893372805
  0
LINE
  5
14E
330
1F
100
AcDbEntity
  8
0
 62
7
100
AcDbLine
 10
80.210292941629
 20
15.000000672478638
 30
0
 11
80.21029294162372
 21
12.000000672478638
 31
0
  0
ARC
  5
14F
330
1F
100
AcDbEntity
  8
0
 62
7
100
AcDbCircle
 10
83.21029294162372
 20
12.000001251896792
 30
0
 40
3.00000000000006
100
AcDbArc
 50
180.00001106607158
 51
359.99998893372833
  0
LINE
  5
150
330
1F
100
AcDbEntity
  8
0
 62
7
100
AcDbLine
 10
86.21029294162372
 20
12.000000672468163
 30
0
 11
86.210292941629
 21
15.000000672468163
 31
0
  0
ENDSEC
  0
SECTION
  2
OBJECTS
  0
DICTIONARY
  5
C
330
0
100
AcDbDictionary
280
0
281
1
  3
ACAD_SCALELIST
350
156
  3
ACAD_COLOR
350
168
  3
ACAD_FIELDLIST
350
169
  3
ACAD_GROUP
350
D
  3
ACAD_IMAGE_DICT
350
16A
  3
ACAD_LAYOUT
350
1A
  3
ACAD_MATERIAL
350
16B
  3
ACAD_MLEADERSTYLE
350
16C
  3
ACAD_MLINESTYLE
350
17
  3
ACAD_PLOTSETTINGS
350
19
  3
ACAD_PLOTSTYLENAME
350
E
  3
ACAD_TABLESTYLE
350
16E
  3
ACDB_RECOMPOSE_DATA
350
172
  3
AcDbVariableDictionary
350
173
  3
ACAD_VISUALSTYLE
350
176
  3
DWGPROPS
350
177
  0
DICTIONARY
  5
170
330
16F
100
AcDbDictionary
280
0
281
1
  3
ACAD_ROUNDTRIP_2008_TABLESTYLE_CELLSTYLEMAP
360
171
  0
DICTIONARY
  5
156
102
{ACAD_REACTORS
330
C
102
}
330
C
100
AcDbDictionary
280
0
281
1
  0
DICTIONARY
  5
168
102
{ACAD_REACTORS
330
C
102
}
330
C
100
AcDbDictionary
280
0
281
1
  0
FIELDLIST
  5
169
102
{ACAD_REACTORS
330
C
102
}
330
C
100
AcDbIdSet
100
AcDbFieldList
  0
DICTIONARY
  5
D
102
{ACAD_REACTORS
330
C
102
}
330
C
100
AcDbDictionary
280
0
281
1
  0
DICTIONARY
  5
16A
102
{ACAD_REACTORS
330
C
102
}
330
C
100
AcDbDictionary
280
0
281
1
  0
DICTIONARY
  5
1A
102
{ACAD_REACTORS
330
C
102
}
330
C
100
AcDbDictionary
280
0
281
1
  3
Layout1
350
1E
  3
Model
350
22
  0
DICTIONARY
  5
16B
102
{ACAD_REACTORS
330
C
102
}
330
C
100
AcDbDictionary
280
0
281
1
  0
DICTIONARY
  5
16C
102
{ACAD_REACTORS
330
C
102
}
330
C
100
AcDbDictionary
280
0
281
1
  3
Standard
350
16D
  0
DICTIONARY
  5
17
102
{ACAD_REACTORS
330
C
102
}
330
C
100
AcDbDictionary
280
0
281
1
  3
STANDARD
350
18
  0
DICTIONARY
  5
19
102
{ACAD_REACTORS
330
C
102
}
330
C
100
AcDbDictionary
280
0
281
1
  0
ACDBDICTIONARYWDFLT
  5
E
102
{ACAD_REACTORS
330
C
102
}
330
C
100
AcDbDictionary
280
0
281
1
  3
Normal
350
F
100
AcDbDictionaryWithDefault
340
F
  0
ACDBPLACEHOLDER
  5
F
102
{ACAD_REACTORS
330
E
102
}
330
E
  0
DICTIONARY
  5
16E
102
{ACAD_REACTORS
330
C
102
}
330
C
100
AcDbDictionary
280
0
281
1
  3
Standard
350
16F
  0
XRECORD
  5
172
102
{ACAD_REACTORS
330
C
102
}
330
C
100
AcDbXrecord
280
1
 90
1
330
16F
  0
DICTIONARY
  5
173
102
{ACAD_REACTORS
330
C
102
}
330
C
100
AcDbDictionary
280
0
281
1
  3
DIMASSOC
350
174
  3
HIDETEXT
350
175
  0
DICTIONARY
  5
176
102
{ACAD_REACTORS
330
C
102
}
330
C
100
AcDbDictionary
280
0
281
1
  0
XRECORD
  5
177
102
{ACAD_REACTORS
330
C
102
}
330
C
100
AcDbXrecord
280
0
  1
DWGPROPS COOKIE
  2

  3

  4

  6

  7

  8

  9

300
=
301
=
302
=
303
=
304
=
305
=
306
=
307
=
308
=
309
=
 40
0
 41
2461007.0535867708
 42
2461007.0535867708
  1

 90
0
  0
CELLSTYLEMAP
  5
171
102
{ACAD_REACTORS
330
170
102
}
330
170
100
AcDbCellStyleMap
 90
3
300
CELLSTYLE
  1
TABLEFORMAT_BEGIN
 90
5
170
0
309
TABLEFORMAT_END
  1
CELLSTYLE_BEGIN
 90
3
 91
2
300
_DATA
309
CELLSTYLE_END
300
CELLSTYLE
  1
TABLEFORMAT_BEGIN
 90
5
170
0
309
TABLEFORMAT_END
  1
CELLSTYLE_BEGIN
 90
1
 91
2
300
_TITLE
309
CELLSTYLE_END
300
CELLSTYLE
  1
TABLEFORMAT_BEGIN
 90
5
170
0
309
TABLEFORMAT_END
  1
CELLSTYLE_BEGIN
 90
2
 91
2
300
_HEADER
309
CELLSTYLE_END
  0
LAYOUT
  5
1E
102
{ACAD_REACTORS
330
1A
102
}
330
1A
100
AcDbPlotSettings
  1

  2
C:\Program Files\AutoCAD 2002\plotters\DWF ePlot (optimized for plotting).pc3
  4

  6

 40
0
 41
0
 42
0
 43
0
 44
0
 45
0
 46
0
 47
0
 48
0
 49
0
140
0
141
0
142
1
143
1
 70
688
 72
1
 73
1
 74
1
  7
acad.stb
 75
16
 76
0
 77
0
 78
0
147
1
148
0
149
0
100
AcDbLayout
  1
Layout1
 70
1
 71
1
 10
0
 20
0
 11
420
 21
297
 12
0
 22
0
 32
0
 14
0
 24
0
 34
0
 15
0
 25
0
 35
0
146
0
 13
0
 23
0
 33
0
 16
1
 26
0
 36
0
 17
0
 27
1
 37
0
 76
0
330
151
  0
LAYOUT
  5
22
102
{ACAD_REACTORS
330
1A
102
}
330
1A
100
AcDbPlotSettings
  1

  2
C:\Program Files\AutoCAD 2002\plotters\DWF ePlot (optimized for plotting).pc3
  4

  6

 40
0
 41
0
 42
0
 43
0
 44
0
 45
0
 46
0
 47
0
 48
0
 49
0
140
0
141
0
142
1
143
1
 70
1712
 72
1
 73
1
 74
0
  7
acad.stb
 75
0
 76
0
 77
0
 78
0
147
1
148
0
149
0
100
AcDbLayout
  1
Model
 70
1
 71
0
 10
0
 20
0
 11
12
 21
9
 12
0
 22
0
 32
0
 14
0
 24
0
 34
0
 15
0
 25
0
 35
0
146
0
 13
0
 23
0
 33
0
 16
1
 26
0
 36
0
 17
0
 27
1
 37
0
 76
0
330
1F
  0
MLEADERSTYLE
  5
16D
102
{ACAD_REACTORS
330
16C
102
}
330
16C
100
AcDbMLeaderStyle
170
2
171
1
172
0
 90
2
 40
0
 41
0
173
1
 91
0
340
0
 92
-2
290
1
 42
0.09
292
1
 43
0.36
  3
Standard
341
0
 44
0.18
300

342
0
174
1
178
1
175
1
176
0
 93
0
 45
0.18
292
0
297
0
 46
0
343
0
 94
0
 47
1
 49
1
140
1
293
1
141
0
294
1
177
0
142
1
295
0
296
0
143
0.125
  0
MLINESTYLE
  5
18
102
{ACAD_REACTORS
330
17
102
}
330
17
100
AcDbMlineStyle
  2
STANDARD
 70
0
  3

 51
90
 52
90
 71
2
 49
0.5
 62
0
  6
ByLayer
 49
-0.5
 62
0
  6
ByLayer
  0
TABLESTYLE
  5
16F
102
{ACAD_XDICTIONARY
360
170
102
}
102
{ACAD_REACTORS
330
16E
102
}
330
16E
100
AcDbTableStyle
  3

 70
0
 71
0
 40
0.06
 41
0.06
280
0
281
0
  7
Standard
140
0.18
170
1
 62
0
283
0
 90
512
 91
0
274
-2
284
1
 64
0
275
-2
285
1
 65
0
276
-2
286
1
 66
0
277
-2
287
1
 67
0
278
-2
288
1
 68
0
279
-2
289
1
 69
0
  7
Standard
140
0.18
170
1
 62
0
283
0
 90
512
 91
0
274
-2
284
1
 64
0
275
-2
285
1
 65
0
276
-2
286
1
 66
0
277
-2
287
1
 67
0
278
-2
288
1
 68
0
279
-2
289
1
 69
0
  7
Standard
140
0.18
170
1
 62
0
283
0
 90
512
 91
0
274
-2
284
1
 64
0
275
-2
285
1
 65
0
276
-2
286
1
 66
0
277
-2
287
1
 67
0
278
-2
288
1
 68
0
279
-2
289
1
 69
0
  0
DICTIONARYVAR
  5
174
102
{ACAD_REACTORS
330
173
102
}
330
173
100
DictionaryVariables
280
0
  1
1
  0
DICTIONARYVAR
  5
175
102
{ACAD_REACTORS
330
173
102
}
330
173
100
DictionaryVariables
280
0
  1
2
  0
ENDSEC
999
Created By CadLib version 4.0.38.30
999
CadLib website: www.woutware.com
  0
EOF
